rock
 
|tablatures   |lyrics   |discussion forums   |more tabs @ XGuitar.com

Ramones tabs

Main Man guitar tab

the d and u under the main part are d=downstroke u=upstroke

This is the main part listen to the song for timing:
d|--4-44--7-77--222--4--444--|
a|--4-44--7-77--222--4--444--|
e|--2-22--5-55--000--4--444--|
    d du  d du  ddd  d  dud
and this is the other main part, again listen for timing (all downstrokes):
g|--4-4-4-4-4-4-4-4--6-6-6-6-6-6-6-6--4-4-4-4-4-4-4-4--6-6-6-6-6-6-6-6-6-6-6-6-6-6-6-6-|
d|--4-4-4-4-4-4-4-4--6-6-6-6-6-6-6-6--4-4-4-4-4-4-4-4--6-6-6-6-6-6-6-6-6-6-6-6-6-6-6-6-|
a|--2-2-2-2-2-2-2-2--4-4-4-4-4-4-4-4--2-2-2-2-2-2-2-2--4-4-4-4-4-4-4-4-4-4-4-4-4-4-4-4-|

and this is the solo:                                                             x8   x8   x8   x16
b|-------------------------5-5-5-7--7-7-14-14-14-12-----------------------------|-7b-|-9b-|-7b-|-9b--|
g|-5b(8)-(8)ub-4-2-----2-4--------------------------14-11/5-5-4-2-4-2-----------|----|----|----|-----|
d|-----------------4-4------------------------------------------------4-2-2-2-4-|----|----|----|-----|

end note of the solo:
    slow bend and release
b|------------------------|
g|-------10---------------|

the ending is just:   hold last note:
d|-4444-22-4444-77--|----4----|
a|-4444-22-4444-77--|----4----|
e|-2222-00-2222-55--|----2----|

this is such an easy song i don\\'t see why there are no tabs already for it.
if you have any questions e-mail me @ ps2skater666@hotmail.com.
Tabbed by: brandon
  development and support by
dmitry ivanov