rock
 
|tablatures   |lyrics   |discussion forums   |more tabs @ XGuitar.com

Ramones tabs

Love Kills bass tab

Song:Love Kills
Band:ramones
Album:Animal Boy
tabbed by:Ian Higbee nekroskankliac@hotmail.com


Intro and solo

G:---------------------------------------------------------------
D:---------------------------------------------------------------
A:-9/10-10-10-9/10-10-10-6/7-7-7-2/3-3-3-2/3-3-3-4/5-5---------------------
E:-----------------------------------------------------3-3-3-2-2-3-3-3-2-2

verses
G:---------------------------------------------------------------
D:-5-5-5-5-5-5-5-5-
A:------------------7-7-7-7-7-7-7-7-3-3-3-3-3-3-3-3-5-5-5-5-5-5-5-5-
E:---------------------------------------------------------------


G:---------------------------------------------------------------
D:---------------------------------------------------------------
A:-------2-2-3-3-5-5-5-5-(right at the end of chorus keep playing the D
E:-3--3------------------
  development and support by
dmitry ivanov