rock
 
|tablatures   |lyrics   |discussion forums   |more tabs @ XGuitar.com

Ramones tabs

Little Bit O' Soul bass tab

I noticed no 1 put this up so here it goes.

 intro/part of verse
g]----------------------------------------------------------------------------------
d]----------00----------------00----------------------------------------------------
a]-----23---------------23----------------------------------------------------------
e]--33---------23----33----------23-------------------------------------------------

other part of verse
g]----------------------------------------------------------------------------------
d]--------------00------------------------------------------------------------------
a]------233323----------------------------------------------------------------------
e]---33------------233333-----------------------------------------------------------

Thats all i no for bass, cause i play guitar.
  development and support by
dmitry ivanov