rock
 
|tablatures   |lyrics   |discussion forums   |more tabs @ XGuitar.com

Ramones tabs

Journey to the Center of the Mind bass tab

Journey to the Center of the Mind
by the Ramones
from Acid Eaters
tabbed by Albino
Albino's Punk and Ska Bass Tabs



G:-----------------
D:-----------------
A:-----6-6-7-9-7-6-
E:-7-7-------------

G:-----------------
D:-----4---5-7-5-4-
A:-5-5-------------
E:-----------------

G:--------------------------
D:--------------------------
A:-----6-6-7-9-7-6----------                   
E:-7-7-------------22222222-



"The pleasure..."
G:--------------------------------------------------------------
D:--------------------------------------------------------------
A:--------------------------------7777777777777777------------- 
E:22222222222222222222222222222222----------------2222222222222222


"Come along if you care...."
G:-----------------------------
D:-----------------------------
A:-2-2-2-2-2-2-2-5-5-5--5-4-3--
E:-----------------------------

G:---------------------------------------------
D:---------------------------------------------
A:-2-2-2-2-2-2-2-5-5-5--5-4-3--4-4-4-4-4-4-4-4-
E:---------------------------------------------



"Or is the man..."
G:---------------------------------
D:---------------------------------
A:66666666----------------66666666-
E:--------7777777744444444---------

G:---------------------------------
D:---------------------------------
A:66666666----------------44444444-
E:--------7777777744444444---------


end
G:----------------------
D:-------2-3-4-4-4------
A:-2-2-2-----------4-3--
E:----------------------


send comments, corrections, and questions to bbfan@bellatlantic.net
  development and support by
dmitry ivanov