rock
 
|tablatures   |lyrics   |discussion forums   |more tabs @ XGuitar.com

Ramones tabs

I'm Against It guitar tab

Ramones - I'm Against It

Tabbed By Peter J. P.
Radicalhooligan@aol.com


Intro Chorus:
                                  6x                                    2x
e|----------------------------------|-------------------------------------|
b|----------------------------------|-------------------------------------|
g|-----------------7--7-7-7---9--7--|----------------7--7--7-7-7------9---|
d|---7--7--7-7-7---7--7-7-7---9--7--|--7--7--7-7-7---7--7--7-7-7---9--9---|
a|---7--7--7-7-7---5--5-5-5---7--5--|--7--7--7-7-7---5--5--5-5-5---9--7---|
e|---5--5--5-5-5--------------------|--5--5--5-5-5-----------------7------|


Verse:
                                              2x
e|----------------------------------------------|
b|----------------------------------------------|
g|-----------------9---------------------7------|
d|---9-9-9-9-9-9---9--9----7-7-7-7-7-7---7--7---|
a|---9-9-9-9-9-9---7--9----7-7-7-7-7-7---5--7---|
e|---7-7-7-7-7-7------7----5-5-5-5-5-5------5---|


Chorus:
                                  4x                                    2x
e|----------------------------------|-------------------------------------|
b|----------------------------------|-------------------------------------|
g|-----------------7--7-7-7---9--7--|----------------7--7--7-7-7------9---|
d|---7--7--7-7-7---7--7-7-7---9--7--|--7--7--7-7-7---7--7--7-7-7---9--9---|
a|---7--7--7-7-7---5--5-5-5---7--5--|--7--7--7-7-7---5--5--5-5-5---9--7---|
e|---5--5--5-5-5--------------------|--5--5--5-5-5-----------------7------|

Bridge:
                                                               2x
e|----------------------------------|----------------------------|
b|----------------------------------|----------------------------|
g|-----------------7--7-7-7---9--7--|--9--9--11---7-7--7--7-7-7--|
d|---7--7--7-7-7---7--7-7-7---9--7--|--9--9--11---7-7--7--7-7-7--|
a|---7--7--7-7-7---5--5-5-5---7--5--|--7--7---9---5-5--5--5-5-5--|
e|---5--5--5-5-5--------------------|----------------------------|
                                  2x
|-----------------------------------|
|-----------------------------------|
|---------------7---9-9--9--9-9-9---|
|--------7--7---7---9-9--9--9-9-9---|
|--------7--7---5---7-7--7--7-7-7---|
|--------5--5-----------------------|


2nd Bridge:

                             2x                            2x
e|-----------------------------|-----------------------------|
b|-----------------------------|-----------------------------|
g|---9--9--11---7-7--7--7-7-7--|---------7---9-9--9--9-9-9---|
d|---9--9--11---7-7--7--7-7-7--|--7--7---7---9-9--9--9-9-9---|
a|---7--7---9---5-5--5--5-5-5--|--7--7---5---7-7--7--7-7-7---|
e|-----------------------------|--5--5-----------------------|


Outro Chorus: (same as intro chorus)
                                  6x                                    2x
e|----------------------------------|-------------------------------------|
b|----------------------------------|-------------------------------------|
g|-----------------7--7-7-7---9--7--|----------------7--7--7-7-7------9---|
d|---7--7--7-7-7---7--7-7-7---9--7--|--7--7--7-7-7---7--7--7-7-7---9--9---|
a|---7--7--7-7-7---5--5-5-5---7--5--|--7--7--7-7-7---5--5--5-5-5---9--7---|
e|---5--5--5-5-5--------------------|--5--5--5-5-5-----------------7------|


That's the whole song...
  development and support by
dmitry ivanov