rock
 
|tablatures   |lyrics   |discussion forums   |more tabs @ XGuitar.com

Ramones tabs

I Want You Around guitar tab

I Want You Around - Ramones
Moderately = 124 beats per minute

Intro

E|--2--2-2-2-2-2-------|
B|--3--3-3-3-3-3-------|
G|--2--2-2-2-2-2---0---|
D|--0--0-0-0-0-0---0---|
A|---------------------|
E|---------------------|

E|--3------------------|
B|--0---0-0-0-0-0-0----|
G|--0---0-0-0-0-0-0----|
D|--0---0-0-0-0-0-0----|
A|--2---2-2-2-2-2-2----|
E|--3---3-3-3-3-3-3----|

E|--2--2-2-2-2-2-------|
B|--3--3-3-3-3-3-------|
G|--2--2-2-2-2-2---0---|
D|--0--0-0-0-0-0---0---|
A|---------------------|
E|---------------------|

E|--3------------------|
B|--0---0-0-0-0-0-0----|
G|--0---0-0-0-0-0-0----|
D|--0---0-0-0-0-0-0----|
A|--2---2-2-2-2-2-2----|
E|--3---3-3-3-3-3-3----|

*Two guitars arranged for one
  development and support by
dmitry ivanov