rock
 
|tablatures   |lyrics   |discussion forums   |more tabs @ XGuitar.com

Ramones tabs

I Wanna Be Your Boyfriend bass tab

Ramones
"I Wanna Be Your Boyfriend"
Tabbed by Sluggo the Stealth Punk

There are only two bass lines in the song.  I think they go like this.

G -----------------------------
D -----------------------------
A 7-7-7-7-7-7-7----------------
E --------------5-5-5-5-7-7-7-7 

G ---------------------------
D ---------------------------
A 4-4-4-4-4-4-4--------------
E --------------5-5-5-5-5-5-5 

E-mail comments / questions / corrections to Sluggo94@compuserve.com
  development and support by
dmitry ivanov