rock
 
|tablatures   |lyrics   |discussion forums   |more tabs @ XGuitar.com

Ramones tabs

I Remember You bass tab

I Remember You
By The Ramones
Tabbed by bassplayerarg@hotmail.com

Fig 1
“I remember you…”

|---------------------------------|
|---------------------------------|
|-7-7-7-7-------------------------|
|---------9-9-9-9-7-7-7-7-7-7-7-7-|

Fig 2
“I remember lying...”

|---------------------------------|
|-4-4-4-4-4-4-4-4-----------------|
|-----------------7-7-7-7-7-7-7-7-|
|---------------------------------|

|---------------------------------|
|-5-5-5-5-5-5-5-5-----------------|
|-----------------7-7-7-7-7-7-7-7-|
|---------------------------------|
  development and support by
dmitry ivanov