rock
 
|tablatures   |lyrics   |discussion forums   |more tabs @ XGuitar.com

Ramones tabs

I Just Want to Have Something to Do guitar chords

any shit  DESTINYPUNK@HOTMAIL.COM

INTRO AND CHORUS

6--5-5-5-5-5--3--1-1-1-1-1--3---
5--7-7-7-7-7--5--3-3-3-3-3--5---
4--7-7-7-7-7--5--3-3-3-3-3--5---
3-------------------------------
2-------------------------------
1-------------------------------

VERSE

6--5-5-5-5-5--1-1-1-1-1--3-3-3-3-3---
5--7-7-7-7-7--3-3-3-3-3--5-5-5-5-5---
4--7-7-7-7-7--3-3-3-3-3--5-5-5-5-5---
3------------------------------------
2------------------------------------
1------------------------------------

PRE CHORUS

6--1-1-1-1-1--3-3-3-3-3--5-5-5-5-5-5---
5--3-3-3-3-3--5-5-5-5-5--7-7-7-7-7-7---
4--3-3-3-3-3--5-5-5-5-5--7-7-7-7-7-7---
3--------------------------------------
2--------------------------------------
1--------------------------------------

then repeat the full song x2 in that order and thats all

a ver si asi me crees pinche acevedo.
  development and support by
dmitry ivanov