rock
 
|tablatures   |lyrics   |discussion forums   |more tabs @ XGuitar.com

Ramones tabs

I Don't Want You bass tab

band:ramones
song:i dont want you
album:road to ruin
bass:dee dee ramone

intro:

g--------------------------------------------------------------------------------------------
d--------------------------------------------------------------------------------------------
a--------------------------------------------------------------------------------------------
e--3-3-3-3-3--1-1---3-3-3-3-3-1-1------------------------------------------------------------

verse:

g--------------------------------------------------------------------------------------------
d--------------------------------------------------------------------------------------------
a--------------------------------------------------------------------------------------------
e--3-3-3-3--1-1-1-1--3-3-3-3--1-1-1-1--------------------------------------------------------


chorus:

g---------------------------------------------------------------------------------------------
d---------------------------------------------------------------------------------------------
a----------------------6-6-6-6-6--------------------------6-6-6-6-6-6-------------------------
e--3-3-3-3-3-1-1-1-1-1------------3-3-3-3-3-3-1-1-1-1-1-1-------------------------------------


bridge:

g----------------------------------------------------------------------------------------------
d----------------------------------------------------------------------------------------------
a--6-6-6-6--------------6-6-6-6-6-6--------------------------------6-6-6-6-6-------------------
e-----------1-1-1-1-1-1-------------1-1-1-1-1-1--3-3-3-3--1-1-1-1------------------------------
  development and support by
dmitry ivanov