rock
 
|tablatures   |lyrics   |discussion forums   |more tabs @ XGuitar.com

Ramones tabs

I Don't Wanna Grow Up bass tab

Band: Ramones
Song: I Dont Wanna Grow Up
Tabbed by Heitor
torzim@arkivodokaos.zzn.com

Intro:

G|----------|
D|----------|
A|--7-7-7-7-|
E|----------|

Verse:

G|-----------------------------|-------------------------------------|
D|*---------------------------*|*-----------------------------------*|
A|*--7-7-7-7---------7-7-7-7--*|*-4-4-4-4---------------------------*|
E|----------7-7-7-7------------|----------4-4-4-4-5-5-5-5-7-7-7-7----|

Bridge:

G|----------------------------------|-----------------|
D|----------------------------------|-----------------|
A|--4-4-4-4---------4-4-4-4---------|-----------------|
E|----------4-4-4-4---------4-4-4-4-|-5-5-5-5-7-7-7-7-|
  development and support by
dmitry ivanov