rock
 
|tablatures   |lyrics   |discussion forums   |more tabs @ XGuitar.com

Ramones tabs

I Don't Wanna Go Down to the Basement bass tab

Song:I dont wanna go to the basement
Band:Ramones
Album:Ramones
tabbed by:Troy Canady

intro
G:---------------------------------------------------------------
D:---------------------------------------------------------------
A:77----777----55----555----33----333------------------------------------------
E:---777----777---555----555--333----333 -------------------------------------------

final part of intro is done four times
G:---------------------------------------------------------------
D:---------------------------------------------------------------
A:-----------------7 5----------------------------------------------
E:5555 5555 5555---------------------------------------------------------------

verse
G:---------------------------------------------------------------
D:---------------------------------------------------------------
A:7777---777--5555--555--------------------------------------------------------
E:------77-----------55----------------------------------------------

chorus
G:---------------------------------------------------------------
D:---------------------------------------------------------------
A:---------------------------------------------------------------
E:5555-1111-3333-55------------------------------------------------------------

outro
G:---------------------------------------------------------------
D:---------------------------------------------------------------
A:77----777-----------------------------------------------------------
E:---777----7--------------------------------------------------------

order:  intro
verse
chorus
intro 
verse
chorus
intro 
verse 
chorus
outro
  development and support by
dmitry ivanov