rock
 
|tablatures   |lyrics   |discussion forums   |more tabs @ XGuitar.com

Ramones tabs

I Can't Make It on Time guitar chords

These are the tabs and chords for the song "I can't make it on time" off
 Phil Spector record End of the Century recorded in 1980.
  Intro
(D G) x2  (raw distortion)
     D                G
e|---------------------------------------|
B|--7--7-7-7-7-7-7-7---------------------|
G|--7--7-7-7-7-7-7-7--6-6-6-6-6-6-6-6----|
D|--7--7-7-7-7-7-7-7--5-5-5-5-5-5-5-5----|
A|--5--5-5-5-5-5-5-5--5-5-5-5-5-5-5-5----| (x2)
E|--------------------3-3-3-3-3-3-3-3----|

  Verse
   D            G
I can't make it on time
I can't make it on time
I keep trying and trying
I can't make it on time
 Pre-Chorus
   F#   G                        A
e|---------------------------------------|
B|---------------------------------------|
G|-3--4-4-4-4--3--4-4-4-4---6-6-6-6-6-6--|
D|-4--5-5-5-5--4--5-5-5-5---7-7-7-7-7-7--|
A|-4--5-5-5-5--4--5-5-5-5---7-7-7-7-7-7--|
E|-2--3-3-3-3--2--3-3-3-3---5-5-5-5-5-5--|

 F#\G     F#\G       A
 I Can't hurry, and you can't wait
 It doesn't matter becuase your already late
 I can't get off the telephone
 It only rings when I'm alone

 Chorus
    D             B
e|---------------------------------------|
B|--7-7-7-7-7-7--4-4-4-4-4---------------|
G|--7-7-7-7-7-7--4-4-4-4-4---------------|
D|--7-7-7-7-7-7--4-4-4-4-4---------------|
A|--5-5-5-5-5-5--2-2-2-2-2---------------|
E|---------------------------------------|
   G                A
e|---------------------------------------|
B|---------------------------------------|
G|-4-4-4-4-4-4-4-4--6-6-6-6--------------|
D|-5-5-5-5-5-5-5-5--7-7-7-7--------------|
A|-5-5-5-5-5-5-5-5--7-7-7-7--------------|
E|-3-3-3-3-3-3-3-3--5-5-5-5--------------|

D                              B
You gotta wait wait 'cause you don't need no one
Wait wait 'cause you know that I'm the one
G              A
You gotta wait hey, hey, hey.....

Solo (clean guitar)
  F# G                A
e|-----------------------------------------|
B|-----------------------------------------|
G|-3-4-4-4-4-4-4-4-4--6-6-6-6--------------|
D|-4-5-5-5-5-5-5-5-5--7-7-7-7--------------|
A|-4-5-5-5-5-5-5-5-5--7-7-7-7--------------|
E|-2-3-3-3-3-3-3-3-3--5-5-5-5--------------|

A                      F#\G
I can't make it on time
I can't make it on time
I can't make it on time
I can't make it on time

(end)D
  development and support by
dmitry ivanov