rock
 
|tablatures   |lyrics   |discussion forums   |more tabs @ XGuitar.com

Ramones tabs

I Can't Make It on Time bass tab

The Ramones: I canĀ“t make it on time
bassist: Dee Dee Ramone
Album: End of the Century

Intro & Verse
G:------------------------------------------------------------------------------------------------
D:------------------------------------------------------------------------------------------------  3x
A:5-5-5-5-----------------5-5-5-5-----------------------------------------------------------------
E:--------3-3-3-3-3-3-3-3---------3-3-3-3-3-3-3-3-------------------------------------------------

Bridge:
G:------------------------------------------------------------------------------------------------
D:------------------------------------------------------------------------------------------------  4x
A:------------------------------------------------------------------------------------------------
E:2/3-3--2/3-3-5-5-5-5-5-5-5-5--------------------------------------------------------------------

Chorus:
"you gotta wait,wait
G:------------------------------------------------------------------------------------------------
D:------------------------------------------------------------------------------------------------  2x
A:----------5-5-5-5-------------5-5-5-5-----------------------------------------------------------
E:------------------7-7-7-7-7-7---------7-7-7-7-7-7----3-3-3-3-3-3-3-3--5-5-5-5-5-5-5-5-----------


repeat all once and then fade out with bridge

very simple song

*please rate*
  development and support by
dmitry ivanov