rock
 
|tablatures   |lyrics   |discussion forums   |more tabs @ XGuitar.com

Ramones tabs

I Believe in Miracles bass tab

Ramones- I believe in miracles
Tabber: Pinhead53 (browncow8@hotmail.com)
Bassist: DeeDee Ramone RIP

Intro and Verse and guitar solo and endeing

G------------------------------
D------------------------------
A-2-2-2-2--------------7-7------  X2
E---------2-2--3-3-3-3----------

G----------------------------------------------
D----------------------------------------------  X1
A-2-2-2-2-----------------------------------7-7
E-------2-2-3-3-3-3-3-3-3-3-5-5-5-5-5-5-5-5----

CHorus

E--7-7-7-7-7-7-7-7-5-5-5-5-5-5-5-5-3-3-3-3-3-3-3-3
  development and support by
dmitry ivanov