rock
 
|tablatures   |lyrics   |discussion forums   |more tabs @ XGuitar.com

Ramones tabs

Here Today, Gone Tomorrow bass tab

Here Today, Gone Tomorrow
By The Ramones
Tabbed by bassplayerarg@hotmail.com


Fig 1: “Ooh, Ooh, Ooh, Oh...”

|---------------------------------|
|---------------------------------|
|-5-5-5-5-5-5-5-5-5-5-5-5-5-5-5-5-|
|---------------------------------|

Fig 2: “…I love You…”

|---------------------------------|
|---------------------------------|
|---------------------------------|
|-2-2-2-2-2-2-2-2-2-2-2-2-2-2-2-2-|

Fig 3: “...I do, I do...”

|---------------------------------|
|---------------------------------|
|-----------------5-5-5-5-5-5-5-5-|
|-0-0-0-0-0-0-0-0-----------------|

Repeat Fig 1 & Fig 2 and then

Fig 4 :

|---------------------------------|
|---------------------------------|
|-7-7-7-7-7-7-7-7-5-5-5-5-5-5-5-5-|
|---------------------------------|

Fig 5: “But I told…”

|---------------------------------|
|-------------------------4---4---|
|-5--5--7-7-7-7---------2---2---2-|
|---------------2-2-2-2-----------| x3

Fig 6: “Someone has to pay the price…”

|--------------|
|--------------|
|--------------|
|-0-----2------|

Fig 7: Bridge

|---------------------------------|
|---------------------------------|
|-5-5-5-5-5-5-5-5-----------------|
|-----------------2-2-2-2-2-2-2-2-| x2 and then


|---------------------------------|
|---------------------------------|
|-----------------5-5-5-5-5-5-5-5-|
|-0-0-0-0-0-0-0-0-----------------|
  development and support by
dmitry ivanov