rock
 
|tablatures   |lyrics   |discussion forums   |more tabs @ XGuitar.com

Ramones tabs

Go Mental bass tab

band : ramones
song : go mental
bass: dee dee ramone

vers:

g--------------------------------------------------------------------------------------
d--------------------------------------------------------------------------------------
a--7-9-9-9-9----------7-9-9-9-9--------------------------------------------------------
e-----------5-7-7-7-7-----------5-7-7-7-7----------------------------------------------


bridge:

g--------------------------------------------------------------------------------------
d--------------------------------------------------------------------------------------
a--------------------------------------------------------------------------------------
e--9-9-9-9-10-10-10-10-9-9-9-9-10-10-10-10---------------------------------------------


chorus:

g--------------------------------------------------------------------------------------
d--------------------------------------------------------------------------------------
a------------------5-5-5-5--7-7-7------------------5-5-5-5-7-7-7-7---------------------
e--7-7-7-7-5-5-5-5----------------7-7-7-7-5-5-5-5--------------------------------------
  development and support by
dmitry ivanov