rock
 
|tablatures   |lyrics   |discussion forums   |more tabs @ XGuitar.com

Ramones tabs

Endless Vacation bass tab

INTRO/VERSE
E-7-7-7-7-7-7-7-5-5-5-5-5-5-5-5-5-7-7-7-7-7-7-7-7-7-7-7-5-5-5-5-5-5-5-5-5-5-
A----------------------------------------------------------------------------
D----------------------------------------------------------------------------
G----------------------------------------------------------------------------

E-6-7-7-7-7-7-7-7-7-7-6-7-7-7-7-7-7-7-7-7-6-7-7-7-7-7-7-7-6-7-7-7-7-7-7-7-
a--------------------------------------------------------------------------
D--------------------------------------------------------------------------
G--------------------------------------------------------------------------

                        ENDING
E-5-5-5-5-5-5-5-5-6-7-7-7-7-7-7-7-7-7-6-7-7-7-7-7-7-7-7-5-5-5-5-5-5-5-5-6-7-7-7-7-7-7
A------------------------------------------------------------------------------------
D------------------------------------------------------------------------------------
G------------------------------------------------------------------------------------

E-7-7-7-7-7-7-7-7-7-5-5-5-5-5-5-5-5-7-7-7-7-7-7-7-7-7-7-7-7-5-5-5-5-5-5-5-5-
A---------------------------------------------------------------------------
D---------------------------------------------------------------------------
G---------------------------------------------------------------------------

JUST LISTEN TO THE SONG YOU WILL GET IT!
! MARKY RAMONE AND THE SPEED KINGS RAWK !!!!!!
  development and support by
dmitry ivanov