rock
 
|tablatures   |lyrics   |discussion forums   |more tabs @ XGuitar.com

Ramones tabs

Don't Come Close guitar tab

Tab: Don't Come Close

^ = hammer on
* = pull off
# = bend string

Intro:
E	-----------------------------------
B	-----------------------------------
G	-7----7---------------------------- [x3]
D	-7----7-7-7----7-5-5----5----------
A	-5----5-7-7----7-5-5----5----------
E	--------5-5----5-3-3----3-5-5-7-5--

Verse:
E	--------------------------------------------
B	--------------------------------------------
G	-7------------------------------------------
D	-7--------5--------------------------5------
A	-5--------5------------5-7-5---------5------
E	----------3------5-5-7---------------3------

Chorus:
E	-----------------------------------
B	-----------------------------------
G	-7----7---------------------------- [x3]
D	-7----7-7-7----7-5-5----5----------
A	-5----5-7-7----7-5-5----5----------
E	--------5-5----5-3-3----3-5-5-7-5--

Bridge
E	-------------------------------------------------------
B	-------------------------------------------------------
G	------------------7------------------------666666666---
D	-5----------------7---------------5--------777777777---
A	-5------5^7*5---5-5------7--5-----5--------777777777---
E	-3------------7---------------7-5-3--------555555555---

Guitar Solo:
E	------------------------------------------------------
B	------------------------------------------------------
G	----------------0---------------------------0---------
D	-9#------9--9-7------7#-----9--7-----9--9-7------7----
A	-------------------9---------------------------9------
E	------------------------------------------------------

E	------------------------------------------------------------------
B	------------------------------------------------------------------
G	------------------------------------------------------------------
D	-9#-----9-9-9-9-7------7#-----9-9-9---9------9-9-9-9-7----7--9-7--
A	------------------9--9--------------------------------------------
E	------------------------------------------------------------------
  development and support by
dmitry ivanov