rock
 
|tablatures   |lyrics   |discussion forums   |more tabs @ XGuitar.com

Ramones tabs

Do You Wanna Dance bass tab

Music: Do you Wanna Dance?
Band: Ramones
Tabbed by Heitor
torzim@arkivodokaos.zzn.com


Verse:

G|-------------------------------------------------------------------|
D|-------------------------------------------------------------------|
A|----------5-5-5-5---------5-5-5-5---------7-7-7-7------------------|
E|--5-5-5-5---------5-5-5-5---------5-5-5-5---------5-5-5-5-5-5-5-5--|

Chorus:

G|-------------------------------------------------------------------|----------|
D|-------------------------------------------------------------------|----------|
A|----------5-5-5-5---------5-5-5-5---------7-7-7-7------------------|--7-7-7-7-|
E|--5-5-5-5---------5-5-5-5---------5-5-5-5---------5-5-5-5-5-5-5-5--|----------|


End:

G|-------------------------|
D|-------------------------|
A|--7-7-7-7-7-7-7-7-7-7----|
E|----------------------5--|
  development and support by
dmitry ivanov