rock
 
|tablatures   |lyrics   |discussion forums   |more tabs @ XGuitar.com

Ramones tabs

Danny Says bass tab

ramones - danny says
Tabbed By: kidwhoplaysbass
Email: es2233@aol.com

Tuning: Standard (E A D G)



  (guitar and drums only)



 verse
G|------------------|------------------||
D|------------------|------------------||
A|------------------|-0-0--2-2---------||
E|--4--4-4--4-------|------------------||


little pre verse


G|------------------||
D|-------4-2--------||
A|-5---5------------||
E|---5--------------||




Pre chorus:
(not accurate count)
E|-333333333333333--||


 chorus:           2x
  ___________________________
 |                           |
G|---------------|-----------|-----------------------------------------------||
D|---------------|-----------|-----------------------------------------------||
A|---------------|-----------|-----------------------------------------------||
E|--5--5---7--7--|-3--3-3--3-|-----5--5--7--7--999999999----5555555---7777777||


G|---------------------------------------------------------------------------||
D|---------------------------------------------------------------------------||
A|---------------------------------------------------------------------------||
E|----5555555555555---7777777777777----3333333333333-----5555555555----------||



bridge:
G|----------------------||
D|----------------------||
A|----------------------||
E|-33---55--77--99----3*||



none of the count is accurate its just around where
it should be and if there is anything wrong just email me.
  development and support by
dmitry ivanov