rock
 
|tablatures   |lyrics   |discussion forums   |more tabs @ XGuitar.com

Ramones tabs

Commando guitar tab

COMMANDO



Ramones


tabbed by Rudy Guzman


guzman_84@hotmail.com
                                                                                             intro
e:---------------------------------------------------------|
B:---------------------------------------------------------|
G:--6--6-6-6-6-6--9--9-9-9-9-9--2--2-2-2-2-2--4--4-4-4-4-4-|
D:--6--6-6-6-6-6--9--9-9-9-9-9--2--2-2-2-2-2--4--4-4-4-4-4-|
A:--4--4-4-4-4-4--7--7-7-7-7-7--0--0-0-0-0-0--2--2-2-2-2-2-|
E:---------------------------------------------------------|
    They do their best, do what they can     They get them ready for Viet-Nam
e:-------------------------------------------------------------------|
B:-------------------------------------------------------------------|
G:--4/6--6-6--6-6---4/6--6-6--6-6--4/6--6-6--6-6--4/6--6-6--6-6------|
D:--4/6--6-6--6-6---4/6--6-6--6-6--4/6--6-6--6-6--4/6--6-6--6-6------|
A:--2/4--4-4--4-4---2/4--4-4--4-4--2/4--4-4--4-4--2/4--4-4--4-4------|
E:-------------------------------------------------------------------|

e:------------------------------------------|
B:------------------------------------------|
G:--9/11--11-11--11-11---9/11--11-11--11-11-|
D:--9/11--11-11--11-11---9/11--11-11--11-11-|
A:--7/9---9--9---9--9----7/9---9--9---9--9--|
E:------------------------------------------|

 From old Hanoi to East Berlin Commando - involved again
e:-------------------------------------------------------------------|
B:-------------------------------------------------------------------|
G:--4/6--6-6--6-6---4/6--6-6--6-6--4/6--6-6--6-6--4/6--6-6--6-6------|
D:--4/6--6-6--6-6---4/6--6-6--6-6--4/6--6-6--6-6--4/6--6-6--6-6------|
A:--2/4--4-4--4-4---2/4--4-4--4-4--2/4--4-4--4-4--2/4--4-4--4-4------|
E:-------------------------------------------------------------------|

e:------------------------------------------|
B:------------------------------------------|
G:--9/11--11-11--11-11---9/11--11-11--11-11-|
D:--9/11--11-11--11-11---9/11--11-11--11-11-|
A:--7/9---9--9---9--9----7/9---9--9---9--9--|
E:------------------------------------------|

They do their best, do what they can  They get them ready for Viet-Nam
e:-------------------------------------------------------------------|
B:-------------------------------------------------------------------|
G:--4/6--6-6--6-6---4/6--6-6--6-6--4/6--6-6--6-6--4/6--6-6--6-6------|
D:--4/6--6-6--6-6---4/6--6-6--6-6--4/6--6-6--6-6--4/6--6-6--6-6------|
A:--2/4--4-4--4-4---2/4--4-4--4-4--2/4--4-4--4-4--2/4--4-4--4-4------|
E:-------------------------------------------------------------------|

e:------------------------------------------|
B:------------------------------------------|
G:--9/11--11-11--11-11---9/11--11-11--11-11-|
D:--9/11--11-11--11-11---9/11--11-11--11-11-|
A:--7/9---9--9---9--9----7/9---9--9---9--9--|
E:------------------------------------------|

First rule is the                       laws of Germany
e:-------------------------------------------------------------|
B:-------------------------------------------------------------|
G:--6--6-6-6-6-6--9--9-9-9-9-9-9--2--2-2-2-2-2-2--4--4-4-4-4-4-|
D:--6--6-6-6-6-6--9--9-9-9-9-9-9--2--2-2-2-2-2-2--4--4-4-4-4-4-|
A:--4--4-4-4-4-4--7--7-7-7-7-7-7--0--0-0-0-0-0-0--2--2-2-2-2-2-|
E:-------------------------------------------------------------|
Second rule is be                        nice to mommy
e:-------------------------------------------------------------|
B:-------------------------------------------------------------|
G:--6--6-6-6-6-6--9--9-9-9-9-9-9--2--2-2-2-2-2-2--4--4-4-4-4-4-|
D:--6--6-6-6-6-6--9--9-9-9-9-9-9--2--2-2-2-2-2-2--4--4-4-4-4-4-|
A:--4--4-4-4-4-4--7--7-7-7-7-7-7--0--0-0-0-0-0-0--2--2-2-2-2-2-|
E:-------------------------------------------------------------|

Third rule is don't                   talk to commies
e:-------------------------------------------------------------|
B:-------------------------------------------------------------|
G:--6--6-6-6-6-6--9--9-9-9-9-9-9--2--2-2-2-2-2-2--4--4-4-4-4-4-|
D:--6--6-6-6-6-6--9--9-9-9-9-9-9--2--2-2-2-2-2-2--4--4-4-4-4-4-|
A:--4--4-4-4-4-4--7--7-7-7-7-7-7--0--0-0-0-0-0-0--2--2-2-2-2-2-|
E:-------------------------------------------------------------|                            Fourth rule is eat                      Kosher salams
e:-------------------------------------------------------------|
B:-------------------------------------------------------------|
G:--6--6-6-6-6-6--9--9-9-9-9-9-9--2--2-2-2-2-2-2--4--4-4-4-4-4-|
D:--6--6-6-6-6-6--9--9-9-9-9-9-9--2--2-2-2-2-2-2--4--4-4-4-4-4-|
A:--4--4-4-4-4-4--7--7-7-7-7-7-7--0--0-0-0-0-0-0--2--2-2-2-2-2-|
E:-------------------------------------------------------------|

e:------------------------------------------|
B:------------------------------------------|
G:--9/11--11-11--11-11---9/11--11-11--11-11-|
D:--9/11--11-11--11-11---9/11--11-11--11-11-|
A:--7/9---9--9---9--9----7/9---9--9---9--9--|
E:------------------------------------------|


   They do their best, do what they can     They get them ready for Viet-Nam
e:-------------------------------------------------------------------|
B:-------------------------------------------------------------------|
G:--4/6--6-6--6-6---4/6--6-6--6-6--4/6--6-6--6-6--4/6--6-6--6-6------|
D:--4/6--6-6--6-6---4/6--6-6--6-6--4/6--6-6--6-6--4/6--6-6--6-6------|
A:--2/4--4-4--4-4---2/4--4-4--4-4--2/4--4-4--4-4--2/4--4-4--4-4------|
E:-------------------------------------------------------------------|

e:------------------------------------------|
B:------------------------------------------|
G:--9/11--11-11--11-11---9/11--11-11--11-11-|
D:--9/11--11-11--11-11---9/11--11-11--11-11-|
A:--7/9---9--9---9--9----7/9---9--9---9--9--|
E:------------------------------------------|

 From old Hanoi to East Berlin Commando - involved again
e:-------------------------------------------------------------------|
B:-------------------------------------------------------------------|
G:--4/6--6-6--6-6---4/6--6-6--6-6--4/6--6-6--6-6--4/6--6-6--6-6------|
D:--4/6--6-6--6-6---4/6--6-6--6-6--4/6--6-6--6-6--4/6--6-6--6-6------|
A:--2/4--4-4--4-4---2/4--4-4--4-4--2/4--4-4--4-4--2/4--4-4--4-4------|
E:-------------------------------------------------------------------|

e:------------------------------------------|
B:------------------------------------------|
G:--9/11--11-11--11-11---9/11--11-11--11-11-|
D:--9/11--11-11--11-11---9/11--11-11--11-11-|
A:--7/9---9--9---9--9----7/9---9--9---9--9--|
E:------------------------------------------|

They do their best, do what they can  They get them ready for Viet-Nam
e:-------------------------------------------------------------------|
B:-------------------------------------------------------------------|
G:--4/6--6-6--6-6---4/6--6-6--6-6--4/6--6-6--6-6--4/6--6-6--6-6------|
D:--4/6--6-6--6-6---4/6--6-6--6-6--4/6--6-6--6-6--4/6--6-6--6-6------|
A:--2/4--4-4--4-4---2/4--4-4--4-4--2/4--4-4--4-4--2/4--4-4--4-4------|
E:-------------------------------------------------------------------|

e:------------------------------------------|
B:------------------------------------------|
G:--9/11--11-11--11-11---9/11--11-11--11-11-|
D:--9/11--11-11--11-11---9/11--11-11--11-11-|
A:--7/9---9--9---9--9----7/9---9--9---9--9--|
E:------------------------------------------|

First rule is the                       laws of Germany
e:-------------------------------------------------------------|
B:-------------------------------------------------------------|
G:--6--6-6-6-6-6--9--9-9-9-9-9-9--2--2-2-2-2-2-2--4--4-4-4-4-4-|
D:--6--6-6-6-6-6--9--9-9-9-9-9-9--2--2-2-2-2-2-2--4--4-4-4-4-4-|
A:--4--4-4-4-4-4--7--7-7-7-7-7-7--0--0-0-0-0-0-0--2--2-2-2-2-2-|
E:-------------------------------------------------------------|
Second rule is be                        nice to mommy
e:-------------------------------------------------------------|
B:-------------------------------------------------------------|
G:--6--6-6-6-6-6--9--9-9-9-9-9-9--2--2-2-2-2-2-2--4--4-4-4-4-4-|
D:--6--6-6-6-6-6--9--9-9-9-9-9-9--2--2-2-2-2-2-2--4--4-4-4-4-4-|
A:--4--4-4-4-4-4--7--7-7-7-7-7-7--0--0-0-0-0-0-0--2--2-2-2-2-2-|
E:-------------------------------------------------------------|

Third rule is don't                   talk to commies
e:-------------------------------------------------------------|
B:-------------------------------------------------------------|
G:--6--6-6-6-6-6--9--9-9-9-9-9-9--2--2-2-2-2-2-2--4--4-4-4-4-4-|
D:--6--6-6-6-6-6--9--9-9-9-9-9-9--2--2-2-2-2-2-2--4--4-4-4-4-4-|
A:--4--4-4-4-4-4--7--7-7-7-7-7-7--0--0-0-0-0-0-0--2--2-2-2-2-2-|
E:-------------------------------------------------------------|                            Fourth rule is eat                      Kosher salams
e:-------------------------------------------------------------|
B:-------------------------------------------------------------|
G:--6--6-6-6-6-6--9--9-9-9-9-9-9--2--2-2-2-2-2-2--4--4-4-4-4-4-|
D:--6--6-6-6-6-6--9--9-9-9-9-9-9--2--2-2-2-2-2-2--4--4-4-4-4-4-|
A:--4--4-4-4-4-4--7--7-7-7-7-7-7--0--0-0-0-0-0-0--2--2-2-2-2-2-|
E:-------------------------------------------------------------|

e:------------------------------------------|
B:------------------------------------------|
G:--9/11--11-11--11-11---9/11--11-11--11-11-|
D:--9/11--11-11--11-11---9/11--11-11--11-11-|
A:--7/9---9--9---9--9----7/9---9--9---9--9--|
E:------------------------------------------|

e:-------------------------------------------------------------------|
B:-------------------------------------------------------------------|
G:--4/6--6-6--6-6---4/6--6-6--6-6--4/6--6-6--6-6--4/6--6-6--6-6------|
D:--4/6--6-6--6-6---4/6--6-6--6-6--4/6--6-6--6-6--4/6--6-6--6-6------|
A:--2/4--4-4--4-4---2/4--4-4--4-4--2/4--4-4--4-4--2/4--4-4--4-4------|
E:-------------------------------------------------------------------|

e:----|
B:----|
G:--9-|
D:--9-|
A:--7-|
E:----|
  development and support by
dmitry ivanov