rock
 
|tablatures   |lyrics   |discussion forums   |more tabs @ XGuitar.com

Ramones tabs

Can't Seem to Make You Mine bass tab

[ -------- Rhe Ramones -------- ]
[  Can't seem to make you mine  ]
[ -------- by turnamo --------- ]
[ ------- joni.t@web.de ------- ]
 _______________________________


It's my favourite song from The Ramones
Have fun

It isn't very hard to play. The technique is important.

Verse:

g--------------------------------------------------
d--------------------------------------------------
a--4-4-4-------------------------------------------
e--------4-4-4-6-6-6--6-66-------------------------

Ref:

g--------------------------------------------------------------
d--------------------------------------------------------------
a----------4-44-----------4h6p4-44---------4-44----------------
e--2-22------------2-22--------------2-22-------------44444444-

Bridge:

g--------------------------------------------------
d--------------------------------------------------
a--4-4-4-------------------------------------------
e--------4-4-4-6-6-6-666---------------------------
  development and support by
dmitry ivanov