rock
 
|tablatures   |lyrics   |discussion forums   |more tabs @ XGuitar.com

Ramones tabs

Can't Get You (Outta My Mind) guitar tab

ramones - cant get you outta my mind
Tabbed By: punkandoi!
Email: dieuwert_mul@hotmail.com

normal tuning: E A D G B E



when you see 1x, 2x or 3x behind a riff, you have to play the whole
riff 1, 2 or 3 times. not only the last staff. every riff has a
lettre and ends with: ||. if a staff ends with only one |, the riff
wil go further.
(sorry for my english, but the tab is correct)



intro:
riff A:
E|-------------------|-------------|-------------|----------------||
B|-------------------|-------------|-------------|----------------||
G|-------------------|-------------|-------------|7-7-7-7-7-7-7-7-||
D|-10--10-10-10--10--|8--8-8-8--8--|6--6-6-6--6--|7-7-7-7-7-7-7-7-||
A|-10--10-10-10--10--|8--8-8-8--8--|6--6-6-6--6--|5-5-5-5-5-5-5-5-||
E|-8---8--8--8---8---|6--6-6-6--6--|4--4-4-4--4--|----------------||2x



riff B:
E|------------------|------------------|-------------|------------||
B|------------------|------------------|-------------|------------||
G|12--12-12-12--12--|10--10-10-10--10--|8--8-8-8--8--|8--6--5--3--||
D|12--12-12-12--12--|10--10-10-10--10--|8--8-8-8--8--|8--6--5--3--||
A|10--10-10-10--10--|8---8--8--8---8---|6--6-6-6--6--|6--4--3--1--||
E|------------------|------------------|-------------|------------||2x



end of intro, I won't say chorus en verse above the riffs. i'll put
the lyrics below the riffs.



riff C:
E|------------------|------------------|-------------|
B|------------------|------------------|-------------|
G|12--12-12-12--12--|10--10-10-10--10--|8--8-8-8--8--|
D|12--12-12-12--12--|10--10-10-10--10--|8--8-8-8--8--|
A|10--10-10-10--10--|8---8--8--8---8---|6--6-6-6--6--|
E|------------------|------------------|-------------|

E|--------------||
B|--------------||
G|7-7-7--7-7-7--||
D|7-7-7--7-7-7--||
A|5-5-5--5-5-5--||
E|--------------||1x
        I can't get you outta my mind, oh no no



riff B:
E|------------------|------------------|-------------|
B|------------------|------------------|-------------|
G|12--12-12-12--12--|10--10-10-10--10--|8--8-8-8--8--|
D|12--12-12-12--12--|10--10-10-10--10--|8--8-8-8--8--|
A|10--10-10-10--10--|8---8--8--8---8---|6--6-6-6--6--|
E|------------------|------------------|-------------|

E|----------------||
B|----------------||
G|7-7-7-7-7-7-7-7-||
D|7-7-7-7-7-7-7-7-||
A|5-5-5-5-5-5-5-5-||
E|----------------||1x
        I can't get you outta my mind, oh no no



riff D:
E|-------------|-------------||
B|-------------|-------------||
G|8--8-8-8--8--|7--7-7-7--7--||
D|8--8-8-8--8--|7--7-7-7--7--||
A|6--6-6-6--6--|5--5-5-5--5--||
E|-------------|-------------||2x
        I can't get you outta my mind
        I can't get you outta my mind



riff B:
E|------------------|------------------|-------------|
B|------------------|------------------|-------------|
G|12--12-12-12--12--|10--10-10-10--10--|8--8-8-8--8--|
D|12--12-12-12--12--|10--10-10-10--10--|8--8-8-8--8--|
A|10--10-10-10--10--|8---8--8--8---8---|6--6-6-6--6--|
E|------------------|------------------|-------------|

E|----------------||
B|----------------||
G|7-7-7-7-7-7-7-7-||
D|7-7-7-7-7-7-7-7-||
A|5-5-5-5-5-5-5-5-||
E|----------------||1x
        Oh no no, oh no no no, oh oh oh oh oh oh oh



riff C:
E|------------------|------------------|-------------|
B|------------------|------------------|-------------|
G|12--12-12-12--12--|10--10-10-10--10--|8--8-8-8--8--|
D|12--12-12-12--12--|10--10-10-10--10--|8--8-8-8--8--|
A|10--10-10-10--10--|8---8--8--8---8---|6--6-6-6--6--|
E|------------------|------------------|-------------|

E|--------------||
B|--------------||
G|7-7-7--7-7-7--||
D|7-7-7--7-7-7--||
A|5-5-5--5-5-5--||
E|--------------||1x
        You said everything would be fine, oh no no



riff B:
E|------------------|------------------|-------------|
B|------------------|------------------|-------------|
G|12--12-12-12--12--|10--10-10-10--10--|8--8-8-8--8--|
D|12--12-12-12--12--|10--10-10-10--10--|8--8-8-8--8--|
A|10--10-10-10--10--|8---8--8--8---8---|6--6-6-6--6--|
E|------------------|------------------|-------------|

E|----------------||
B|----------------||
G|7-7-7-7-7-7-7-7-||
D|7-7-7-7-7-7-7-7-||
A|5-5-5-5-5-5-5-5-||
E|----------------||1x
        You said everything would be fine, oh no no no no



riff D:
E|-------------|-------------||
B|-------------|-------------||
G|8--8-8-8--8--|7--7-7-7--7--||
D|8--8-8-8--8--|7--7-7-7--7--||
A|6--6-6-6--6--|5--5-5-5--5--||
E|-------------|-------------||2x
        I can't get you outta my mind
        I can't get you outta my mind, oh no no



riff E:
E|------------------|------------------------||
B|------------------|------------------------||
G|12--12-12-12--12--|12-12-12-12-12-12-12-12-||
D|12--12-12-12--12--|12-12-12-12-12-12-12-12-||
A|10--10-10-10--10--|10-10-10-10-10-10-10-10-||
E|------------------|------------------------||1x



riff F:
E|------------|------------|-----------|----------|
B|------------|------------|-----------|----------|
G|12----10----|12----12----|8----10----|7----7----|
D|12----10----|12----12----|8----10----|7----7----|
A|10----8-----|10----10----|6----8-----|5----5----|
E|------------|------------|-----------|----------|

E|------------|------------|------------------------|
B|------------|------------|------------------------|
G|12----10----|12----12----|10-10-10-10-10-10-10-10-|
D|12----10----|12----12----|10-10-10-10-10-10-10-10-|
A|10----8-----|10----10----|8--8--8--8--8--8--8--8--|
E|------------|------------|------------------------|

E|------------------------||
B|------------------------||
G|10-10-10-10-10-10-10-10-||
D|10-10-10-10-10-10-10-10-||
A|8--8--8--8--8--8--8--8--||
E|------------------------||2x
        Well I tried and I tried and I tried
        I can't get you out oh, no no no
        And I tried and I tried and I tried
        Can't get you out, outta my mind



riff G (bridge I think):
E|----------------|-----------|----------------|-----------|
B|----------------|-----------|----------------|-----------|
G|12--12--12--12--|8----10----|12--12--12--12--|8----10----|
D|12--12--12--12--|8----10----|12--12--12--12--|8----10----|
A|10--10--10--10--|6----8-----|10--10--10--10--|6----8-----|
E|----------------|-----------|----------------|-----------|

E|----------------|-----------|----------------|----------------||
B|----------------|-----------|----------------|----------------||
G|12--12--12--12--|8----10----|7-7-7-7-7-7-7-7-|7-7-7-7-7-7-7-7-||
D|12--12--12--12--|8----10----|7-7-7-7-7-7-7-7-|7-7-7-7-7-7-7-7-||
A|10--10--10--10--|6----8-----|5-5-5-5-5-5-5-5-|5-5-5-5-5-5-5-5-||
E|----------------|-----------|----------------|----------------||2x
                                                 outta my mind



riff C:
E|------------------|------------------|-------------|
B|------------------|------------------|-------------|
G|12--12-12-12--12--|10--10-10-10--10--|8--8-8-8--8--|
D|12--12-12-12--12--|10--10-10-10--10--|8--8-8-8--8--|
A|10--10-10-10--10--|8---8--8--8---8---|6--6-6-6--6--|
E|------------------|------------------|-------------|

E|--------------||
B|--------------||
G|7-7-7--7-7-7--||
D|7-7-7--7-7-7--||
A|5-5-5--5-5-5--||
E|--------------||1x
        You said everything would be fine, oh no no



riff B:
E|------------------|------------------|-------------|
B|------------------|------------------|-------------|
G|12--12-12-12--12--|10--10-10-10--10--|8--8-8-8--8--|
D|12--12-12-12--12--|10--10-10-10--10--|8--8-8-8--8--|
A|10--10-10-10--10--|8---8--8--8---8---|6--6-6-6--6--|
E|------------------|------------------|-------------|

E|----------------||
B|----------------||
G|7-7-7-7-7-7-7-7-||
D|7-7-7-7-7-7-7-7-||
A|5-5-5-5-5-5-5-5-||
E|----------------||1x
        You said everything would be fine, oh no no no no



riff D:
E|-------------|-------------||
B|-------------|-------------||
G|8--8-8-8--8--|7--7-7-7--7--||
D|8--8-8-8--8--|7--7-7-7--7--||
A|6--6-6-6--6--|5--5-5-5--5--||
E|-------------|-------------||2x
        I can't get you outta my mind
        I can't get you outta my mind
        Oh no no



riff H:
E|------------------|------------------|
B|------------------|------------------|
G|12--12-12-12--12--|10--10-10-10--10--|
D|12--12-12-12--12--|10--10-10-10--10--|
A|10--10-10-10--10--|8---8--8--8---8---|
E|------------------|------------------|

E|------------------|------------------|
B|------------------|------------------|
G|12--12-12-12--12--|10--10-10-10--10--|
D|12--12-12-12--12--|10--10-10-10--10--|
A|10--10-10-10--10--|8---8--8--8---8---|
E|------------------|------------------|

E|----------------|----------------|------------------|----------||
B|----------------|----------------|------------------|----------||
G|8-8-8-8-8-8-8-8-|7-7-7-7-7-7-7-7-|12--12-12-12--12--|8----7----||
D|8-8-8-8-8-8-8-8-|7-7-7-7-7-7-7-7-|12--12-12-12--12--|8----7----||
A|6-6-6-6-6-6-6-6-|5-5-5-5-5-5-5-5-|10--10-10-10--10--|6----5----||
E|----------------|----------------|------------------|----------||3x
        Oh no no
        Oh no no, oh oh, yeah
        Oh no no
        Oh no no
        Oh no no, yeah
        Oh no no
        Oh no no
        Oh no no, yeah



ending on:
riff I:
E|----------------||
B|----------------||
G|-12-------------||
D|-12-------------||
A|-10-------------||
E|----------------||


TIP: download the whole lyric, that makes it surveyable

finally is here the order to play the riffs, easy when you know the
song, but don't know the order. Now you will have a short list of it.

riff A: 2x
riff B: 2x
riff C: 1x
riff B: 1x
riff D: 2x

riff B: 1x
riff C: 1x
riff B: 1x
riff D: 2x
riff E: 1x

riff F: 2x
riff G: 2x
riff C: 1x
riff B: 1x
riff D: 2x

riff H: 3x
riff I: 1x
  development and support by
dmitry ivanov