rock
 
|tablatures   |lyrics   |discussion forums   |more tabs @ XGuitar.com

Ramones tabs

California Sun guitar tab

C A L I F O R N I A  S U N
T H E  R A M O N E S

Tabbed by fudgeotec

RIFF 1
e|----------------------------------------------------------------------------------------------|
B|----------------------------------------------------------------------------------------------|
G|----------------------------------------------------------------------------------------------|
D|--2--2--2--2--2--2--7--7--7--7--7--7--2--2--2--2--2--7--7--7--7--7--7--7--7--2--2--2--2--2--2-|
A|--2--2--2--2--2--2--7--7--7--7--7--7--2--2--2--2--2--2--7--7--7--7--7--7--7--2--2--2--2--2--2-|
E|--0--0--0--0--0--0--5--5--5--5--5--5--0--0--0--0--0--0--5--5--5--5--5--5--5--0--0--0--0--0--0-|

e|----------------------------------------------------------------------------------------------|
B|----------------------------------------------------------------------------------------------|
G|----------------------------------------------------------------------------------------------|
D|--7--7--7--7--7--7--2--2--2--2--2--2--7--7--7--7--7--7--7-------------------------------------|
A|--7--7--7--7--7--7--2--2--2--2--2--2--7--7--7--7--7--7--7-------------------------------------|
E|--5--5--5--5--5--5--0--0--0--0--0--0--5--5--5--5--5--5--5-------------------------------------|


RIFF 2
e|----------------------------------------------------------------------------------------------|
B|----------------------------------------------------------------------------------------------|
G|--------------------6--6--6--6--6--6--------------9--9----------------------------------------|
D|--2--2--2--2--2--2--6--6--6--6--6--6--7--7--9--9--9--9----------------------------------------|
A|--2--2--2--2--2--2--4--4--4--4--4--4--7--7--9--9--7--7----------------------------------------|
E|--0--0--0--0--0--0--------------------5--5--7--7----------------------------------------------|


RIFF 3
e|---------------------------0----------------------------0-------------------------------------|
B|------------0--0--2--2--------0-------------0--0--2--2-----0----------------------------------|
G|---------1------------------------------1-----------------------------------------------------|
D|--2--2--------------------------2--2----------------------------------------------------------|
A|----------------------------------------------------------------------------------------------|
E|----------------------------------------------------------------------------------------------|

STRUMMING
RIFF 1 = down down down up down up (Every time you change chords)
RIFF 2 = down down down up down up(x2) down up down up down up down (Used for whole riff)
RIFF 3 = alternate picking

SONG LAYOUT
RIFF 1		RIFF 2		RIFF 1
RIFF 2		RIFF 3		RIFF 2
RIFF 3            RIFF 1 	         RIFF 2	
RIFF 1		RIFF 1		RIFF 1
RIFF 3		RIFF 2
RIFF 1		RIFF 3
  development and support by
dmitry ivanov