rock
 
|tablatures   |lyrics   |discussion forums   |more tabs @ XGuitar.com

Ramones tabs

Bop 'Til You Drop bass tab

Bop ‘Til You Drop
By The Ramones
Tabbed by bassplayerarg@hotmail.com

Intro

|-----------------------------|
|-----------------------------|
|-----------------------------|
|-0-0-0-0-0-0-0-0-0-0-5-0-0-5-| x2

Verse

|---------------------------------|
|---------------------------------|
|---------------------------------|
|-0-0-0-0-0-0-3-5-0-0-0-0-0-0-3-5-|

“They want Your Blood...” part

|---------------------------------|
|---------------------------------|
|-3-3-3-3-3-3-3-3-2-2-2-2-2-2-2-2-|
|---------------------------------|

|--------------------------------|
|--------------------------------|
|-----7--------------------------|
|-0-0------7-7-7-5-5-5-3-3-0-3-0-|
  development and support by
dmitry ivanov