rock
 
|tablatures   |lyrics   |discussion forums   |more tabs @ XGuitar.com

Ramones tabs

My Brain Is Hanging Upside Down (Bonzo Goes To Bitburg) bass tab

Intro:
G]----------------]----------------]----------------]----------------]
D]----------------]----------------]----------------]----------------]
A]----------------]----------------]----------------]-3-3-3-3-3-3-3-3]
E]-3-3-3-3-3-3-3-3]-3-3-3-3-3-3-3-3]-1-1-1-1-1-1-1-1]----------------]
cont.
G]----------------]----------------]
D]----------------]----------------]
A]----------------]----------------]
E]-3-3-3-3-3-3-3-3]-3-3-3-3-3-3-3-3]

Verse 1:
G]----------------]----------------]-----------------]---------------]
D]----------------]----------------]-----------------]---------------]
A]----------------]-3-3-3-3-3-3-3-3]-----------------]---------------]
E]-1-1-1-1-1-1-1-1]----------------]-3-3-3-3-3-3-3-3-]3-3-3-3-3-3-3-3]

Pre-Chorus:
G]----------------]----------------]
D]----------------]----------------]
A]----------------]----------------]
E]-5-5-5-5-5-5-5-5]-3-3-3-3-1-1-1-1]

Pre-Chorus Break:
G]----------------]
D]----------------]
A]----------------]
E]--1~------------]

Chorus:
G]----------------]----------------]
D]----------------]----------------]
A]-3-3-3-3-3-3-3-3]----------------]
E]----------------]-3-3-3-3-1-1-1-1]

Chorus Break:
G]----------------]-------------]
D]----------------]-------------]
A]-3-3-3-3-3-3-3-3]-------------]
E]----------------]-1~-1~-1~-1~-]

Middle:
G]----------------]----------------]
D]----------------]----------------]
A]-5-5-5-5-5-5-5-5]----------------]
E]----------------]-5-5-5-5-3-3-3-3]


Verse 2:
G]----------------]----------------]
D]----------------]----------------]
A]-5-5-5-5-5-5-5-5]----------------]
E]----------------]-5-5-5-5-3-3-3-3]

Chorus 2:
G]----------------]----------------]
D]----------------]----------------]
A]-5-5-5-5-5-5-5-5]----------------]
E]----------------]-5-5-5-5-3-3-3-3]

~Riff Order~
Intro--------------1X
Verse 1------------2X
Pre-Chorus---------3X
Pre-Chorus Break---1X (with ring)
Chorus-------------3X
Chorus Break-------1X
Verse 1------------2X
Pre-Chorus---------3X
Pre-Chorus Break---1X
Chorus-------------3X
Chorus Break-------1X
Middle-------------4X
Verse 2------------2X
Chorus 2-----------4X (Music fades)
  development and support by
dmitry ivanov