rock
 
|tablatures   |lyrics   |discussion forums   |more tabs @ XGuitar.com

Ramones tabs

Blitzkrieg Bop bass tab

Band: Ramones
Song: Blitzkrieg Bop
Albun: Ramones
Tabbed By: Claudio Podre Ramone
Email: rollersp@ig.com.br

This is the correct version. Originaly tabbed by: gadkins@mac.com 


Riff-1
|--------------------------|
|--------------------------|
|--------------------------|
|-5>>>---------------------|

Riff-2
|--------------------------|      
|--------------------------|      
|---------------5-5-7-7-7--|      
|-5-5-5-5-5-5-5------------|

Riff-3
| ------------------------|
| ------------------------|
| -------5-5-5------------|
| -5-5-5-------5-5-5-5-5--|

Riff-4
|----------------------------------|----------------------------------|------------------------|
|----------------------------------|----------------------------------|------------------------|                           
|-5-5-5-5-5-5-5-5-5-5-5-5----------|-----5---5-5-5-5-5-5-5-5-5-5-5-5--|-2-2-2-2-2-2-5-5-7-7-7--|
|-------------------------5-5-5-5--|-5-5---5--------------------------|------------------------|


How it's played:

Riff-2 (3x)
Riff-3 (1x)
Riff-2 (3x)
Riff-1 (1x)
Pause  (Hey Ho!! Lets Go!!! Part) Drums Only
Riff-1 (1x) (In the 3 Hey Ho, Lets Go in the Pause)
Riff-2 (3x)
Riff-3 (1x)
Riff-2 (3x)
Riff-1 (1x)
Riff-4 (1x)
Riff-2 (3x)
Riff-3 (1x)
Riff-2 (3x)
Riff-1 (1x)
Riff-4 (1x)
Pause  (Hey Ho!! Lets Go!!! Part) Drums Only
Riff-1 (1x) (In the 3 Hey Ho, Lets Go in the Pause)
*End*

Sorry for the english, i'm not very good with this language!!!
  development and support by
dmitry ivanov