rock
 
|tablatures   |lyrics   |discussion forums   |more tabs @ XGuitar.com

Rainbow tabs

Still Im Sad guitar tab

Author/Artist: RITCHIE BLACKMORE
Title: STILL IM SAD
Album: RAINBOW
Transcribed by: WIZRD
Email: jon@jmiller61.freeserve.co.uk

-||------------|---------------|-----------|--------------|-|--------------|--
-||------------|---------------|-----------|--------------|-|--------------|--
-||------------|---------------|-----------|--------------|-|--------------|--
-||------------|---------------|-----------|--------------|-|---7------5---|--
-||---7-----7--|---7----7p5-5--|---7----7--|---7----7p5-5-|-|-7------5-----|--
-||00----00----|00---00--------|00---00----|00---00-------|-|5-----3-------|--
                                                           x2 A    G          

-|------------|----------------|-----------|--------------|-------------------
-|------------|----------------|-----------|--------------|-------------------
-|------------|----------------|-----------|---------2/4--|-------------------
-|-2/4-5---45-|7-5---4h5p4-----|-----5-----|--------------|-------------------
-|------------|-----------7--5-|7----------|0h2p0---------|-------------------
-|------------|----------------|----------0|------3-0-----|-------------------
   Em          D                Em                                            

-|------------|----------------|-------------|------------|-------------------
-|------------|----------------|-------------|------------|-------------------
-|------------|----------------|-------7/9---|9\7--/9--\--|-------------------
-|-2/4-5---45-|7-5---4h5p4-----|-------7/9---|9\7--/9--\--|-------------------
-|------------|-----------7--5-|7------------|------------|-------------------
-|------------|----------------|------------0|------------|-------------------
   Em          D                 Em                                           

-|------------|----------------|---------------|----------|---------|---------
-|------------|----------------|---------------|----------|---------|---------
-|-2h4--\2---4|h5p4----2h4p2---|---------------|----5/7---|---------|---------
-|5-----------|-------------5--|-5-----4h5p4---|----------|---------|---------
-|------------|----------------|5------------7-|5---------|---------|---------
-|------------|----------------|---------------|----------|---------|---------
  G            C                G                D7                           

-|------------|----------------|---------------|---------|-------|-----|---|--
-|------------|----------------|---------------|---------|-------|-----|---|--
-|-2-4-----24/|5------454-2---2|/4--\----2-----|---------|-6/7--b|9----|9--|--
-|5-----------|-------------5--|---------------|-5----4--|-------|-----|---|--
-|------------|----------------|---------------|---------|-------|-----|---|--
-|------------|----------------|---------------|---------|-------|-----|---|--
  G            C                B7        Am     G     B   F#     G     A     

-|------------|-------------|------------|------------|----------||-----------
-|7-----------|-------------|------------|------------|----------||-----------
-|9b11--------|9b11r9--9----|9-----------|9b11r9--9---|9---------||-----------
-|------------|-------------|------------|------------|----------||-----------
-|------------|-------------|------------|------------|----------||-----------
-|------------|-------------|------------|------------|----------||-----------
  F#           D      Em                  D       Em
  development and support by
dmitry ivanov