rock
 
|tablatures   |lyrics   |discussion forums   |more tabs @ XGuitar.com

Rainbow tabs

Starstruck guitar tab

Rainbow - Starstruck
Submitted By: stratovarius5000
EMail: stratovarius5000@yahoo.com


----------------------7-7-7----------------------------------------------------
----------------------------10-7---7-------------------------------------------
------------------7-9------------9---9-7-9-6-7---------------------------------
-9-9-9-p7---9-9-9-------------------------------9-7----------------------------
----------9-----------------------------------------9--------------------------
-------------------------------------------------------------------------------
          Intro  3X

--------------------------------------------------------------------------------
--------------------------------------------------------------------------------
----------7---------------------------------------------------------------------
----7-------9-7-----------------------------------------------------------------
7-9---7-9-------9---------------------------------------------------------------
--------------------------------------------------------------------------------
ending A 2X

--------------------------------|-----------------------------------------------
--------------------------------|-----------------------------------------------
--------------------------------|----------7--------------9--7------------------
-----9p7------9-----9p7------9--|----9p7---7--9-----9p7---9--7------------------
--------9--------------9--------|-------9-----9--------9------------------------
-7-7-------7-7---7-7------7-7---|-7-7------------7-7----------------------------
verse                              end of verse and
also chorus
----------------------------------------------------------------------------
----------------------------------------------------------------------------
-----------------------------------------------------7----------------------
-----5------5-----5p3-----5------9p7------9-----9p7--7--9-------------------
---------------------5--------------9--------------9----9-------------------
-3-3----3-3---3-3------3-3---7-7------7-7---7-7-----------------------------
2X

--------------------------------------------------------------------------------
--------------------------------------------------------------------------------
--------------------------------------------------------------------------------
-----7-----7-----7-----7-----4---4---4---4--------------------------------------
--------------------------------------------------------------------------------
-5-5---5-5---5-5---5-5----------------------------------------------------------
"screatching like a...

chorus 3X then ending A

-----------------------------------------------------------------------
-----------------------------------------------------------------------
-9h11p9--7h9p7--6h7p6--------------------------------------------------
-----------------------9-7---9-----------------------------------------
---------------------------9-------------------------------------------
-----------------------------------------------------------------------
  development and support by
dmitry ivanov