rock
 
|tablatures   |lyrics   |discussion forums   |more tabs @ XGuitar.com

Rainbow tabs

Man On The Silver Mountain guitar tab

Intro
E------------------------------------------------------------------|
B------------------------------------------------------------------|
G-------------3-------------------5--3-----------------------------|
D-----5-3-5---3---3--5----5-3-5---5--3-----------------------------|
A-----5-3-5-------3--5----5-3-5------------------------------------|
E--3---------------------------------------------------------------|

E------------------------------------------------------------------|
B------------------------------------------------------------------|
G-------------3----------------------------------------------------|
D-----5-3-5---3---3--5----5-3-1------------------------------------|
A-----5-3-5-------3--5----5-3-1------------------------------------|
E--3---------------------------------------------------------------|

`
I'm a wheel, I'm a wheel...
E------------------------------------------------------------------|
B------------------------------------------------------------------|
G----------------5--------------------------0--4---------5---------|
D-------3-----------------5--------5-----2------------5------------|
A-----------3-3------------------------------------3---------------|
E--1-1---------------3-3------3-3----------------------------------|

E------------------------------------------------------------------|
B---------------------------------------------------------0-4------|
G------------------------------------------5--------5---2---------5|
D------3--------3--------5--------1-----------------------------5--|
A-------------------------------------3-3------3-3------------3----|
E-1-1------1-1------3-3------1-1-----------------------------------|

`
Come down with fire...
E--5-------5-------5-------5-------6-------6-------6-------6-------|
B----6---6---6---6---6---6---6---6---6---6---6---6---6---6---6---6-|
G------7-------7-------7-------7-------7-------7-------7-------7---|
D------------------------------------------------------------------|
A------------------------------------------------------------------|
E------------------------------------------------------------------|

E--5-------5-------5-------5-------8---------8---------8-----------|
B----6---6---6---6---6---6---6---6---10---10---10---10---10---10---|
G------7-------7-------7-------7--------9---------9---------9------|
D------------------------------------------------------------------|
A------------------------------------------------------------------|
E------------------------------------------------------------------|

E--8---------10----------10----------12----------12----------------|
B----10---10----11----11----11----11----13----13-------------------|
G-------9----------10----------10----------12----------------------|
D------------------------------------------------------------------|
A------------------------------------------------------------------|
E------------------------------------------------------------------|
p p

E--10----------10-----------6-3---3--6-3---3---3--------3----------|
B-----11----11----11----11------3--------3-------4-3-4----4-3-4----|
G--------10----------10--------------------------------------------|
D------------------------------------------------------------------|
A------------------------------------------------------------------|
E------------------------------------------------------------------|

E--5-------5-------------------------------------------------------|
B----6---6---6---6-------------------------------------------------|
G------5-------5---------------------------------------------------|
D------------------------------------------------------------------|
A------------------------------------------------------------------|
E------------------------------------------------------------------|
  development and support by
dmitry ivanov