rock
 
|tablatures   |lyrics   |discussion forums   |more tabs @ XGuitar.com

Rainbow tabs

Long Live Rock N Roll guitar tab

Intro
                                    F      F#     G
E|----------------|-----------------|------------------|--------------------|
B|----------------|-----------------|------------------|--------------------|
G|----------------|-----------------|------5-3h5p3-----|--------------------|
D|----------------|-----------------|---------------5--|-3-----3-----3--5---|
A|----------------|---------3--4----|------------------|----5-----5---------|
E|----------------|---------1--2----|-3----------------|--------------------|

      Gm
E|----------------------|---------------------|---------------------|--------------------|
B|----------------------|---------------------|---------------------|--------------------|
G|------5-3h5p3-----|---------------------|-----5-3h5p3------|--------------------|
D|------------------5--|---3-----3--5------|------------------5--|-3----3----3--5---|
A|----------------------|------5-------------|----------------------|----5----5---------|
E|-3-------------------|---------------------|-3--------------------|--------------------|

      Gm F D C       Bb Gm F F#
E|------------------|-------------------|
B|------------------|-------------------|
G|------------------|-------------------|
D|--5--3-----------|-------------------|
A|---------5--3----|-------------------|
E|------------------|--6--3--1--2-----|

Backing Riffs
     Gm    Play 3x                                         Play 3x
E|----------------------|----------------------|-----------------------|----------------------|
B|----------------------|----------------------|-----------------------|----------------------|
G|----------------------|-----------3---------|-----------------------|----------------------|
D|------5-------5p3--|------5p3---5p3----|------5-------5p3---|-------5--------------|
A|--------------------5|--------------------5-|---------------------5|--------------0-1----|
E|3-3-----3-3--------|-3-3------------------|3-3-----3-3---------|-3-3------3---------|

     Bb           F              Cm  Gm                Eb      F          Gm
E|----------------------|-------------------|-----------------|-------------------|
B|----------------------|-------------------|-----------------|-------------------|
G|---------------------|--------------------|-----------------|-------------------|
D|---------------------|--------------------|--1-0-----------|------5-----------|
A|-1-0-----------3-0-|--3-1--0----------|---------3-1----|-------------0-1--|
E|-------3-1--1-------|-----------3-------|-----------------|-3-3-----3--------|

      Bb          F              Cm          Gm         F                                                   F#
E|----------------------|--------------------|------------------------|--------------------|
B|----------------------|--------------------|------------------------|--------------------|
G|---------------------|---------------------|------------------------|--------------------|
D|---------------------|---------------------|------------------------|--------------------|
A|-1-0-------------0-|-3-1-0--------------|-333-333-333-333-|-333-333-3--4--|
E|-------3-1--1-3----|---------3---3-3-3-|-111-111-111-111-|-111-111-1--2--|

Repeat Intro

Solo
      Gm             Play 3x                                      Gm      G#m Am      Bbm
E|-3h6-----6--6-----6--6-----6--6-----8-----|---6---6--7---7--8----8--9----9--|
B|--------8--------8---------8--------8---------|-----8------9-------10------11----|
G|------------------------------------------------|--------------------------------------|
D|------------------------------------------------|--------------------------------------|
A|------------------------------------------------|--------------------------------------|
E|------------------------------------------------|--------------------------------------|

       Bm         Cm            C#m        Dm           Gm
E|10----10-11-----11-12----12-13------13|-13b-13b-13b-13b-|-13b-13b-13b--|
B|----12--------13---------14---------15-----|------------------------|--------------------|
G|-----------------------------------------------|-------------------------|-------------------|
D|-----------------------------------------------|-------------------------|-------------------|
A|-----------------------------------------------|-------------------------|-------------------|
E|-----------------------------------------------|-------------------------|-------------------|

        Gm                                                    Gm
E|--13-13-10-10-10-10-------------------|------------------------------------------|
B|---------------13-13-13-13-13p11------|--13-13-13p11-----11---------------|
G|---------------------------------------------|--------------------12-----12-----------|
D|---------------------------------------------|------------------------------------------|
A|---------------------------------------------|------------------------------------------|
E|---------------------------------------------|------------------------------------------|


E|---------------------------------------------------------|-----------------------------------------|
B|--11-----8-11p8------8-11p8----8-11p8-----8---|---11p8-----8-11p8-----8------8----|
G|------10-----------10-----------10----------10------|----------10-----------10----10-------|
D|---------------------------------------------------------|-----------------------------------------|
A|---------------------------------------------------------|-----------------------------------------|
E|---------------------------------------------------------|-----------------------------------------|

      Gm
E|---------------------------------------------------|----------------------------------------------|
B|-----8-11p8-----8-11-11-13-11-13-15-13-|-11-13-11-12s13-11-13-13-11--------|
G|-10----------10---------------------------------|----------------------------------------12---|
D|--------------------------------------------------|-----------------------------------------------|
A|--------------------------------------------------|-----------------------------------------------|
E|--------------------------------------------------|-----------------------------------------------|


E|------13-13-10-----10-------------|----------------------------------------------------|
B|-11---------------13----13-11-13-|-11------------------------------------------------|
G|---------------------------------------|----12-11-10-----10-12p10-----10--12-10--|
D|---------------------------------------|-----------------12--------------12---------------|
A|---------------------------------------|-----------------------------------------------------|
E|---------------------------------------|-----------------------------------------------------|

       Bb       F                Cm                  Gm           Eb                    F                   Gm
E|-----------------|--------------------------------|--------------------------------|--------------|
B|-----11---------|--------------------------------|11-8--------------------------|-13b-13b---|
G|12------12p10|--------------------------------|-------10s12-10-10-----10|---------------|
D|-----------------|12p11-12-11p10s8-10----|------------------------12----|---------------|
A|-----------------|-----------------------------10|--------------------------------|---------------|
E|-----------------|--------------------------------|--------------------------------|---------------|

      Bb          F                Cm           Gm          F                                                  F#
E|-----------------------|---------------------|-13-13-10-----------|------------------13|
B|-13-13-13-13-13--|-13-13-11---------|--------------13-13--|-13p11-13-11----|
G|-----------------------|-------------12-12-|-----------------------|----------------------|
D|-----------------------|---------------------|------------------------|---------------------|
A|-----------------------|---------------------|------------------------|----------------------|
E|-----------------------|---------------------|------------------------|----------------------|
  development and support by
dmitry ivanov