rock
 
|tablatures   |lyrics   |discussion forums   |more tabs @ XGuitar.com

Rainbow tabs

Long Live Rock N Roll bass tab

Intro/Chorus

G|---------------------------------------------------------------------||
D|------------------------------------------------------5-3------------||
A|-------3-1-------------3-1-----------3-1------------------5-3-1------||
E|1-2-3------3-1-1-0-1-3-----3-01-01-3-----3-1-1-0-1-3------------1-2-3||


[Verse]
G|------------------------------------|----||
D|------5-----5-------5-----5-------5-|----||
A|--------------3------------3--------|-X2-||
E|--3-3---3-3-----3-3---3-3-----3-3---|----||

[Pre Chorus]
G|---------------------------------------------------------------------||
D|-------------------------------5-------------------------------------||
A|-1-0-----0-3-3-1-0---6-5-3-0-3-----1-0-----0-3-3-1-0-----------------||
E|-----3-1-----------3-------------------3-1-----------3-111111-1-2-3--||

Song Structure
Chorus
Verse
Pre-Chorus
Chorus
Verse
Per-Chorus
Chorus
Interlude (Play verse)
Pre-Chorus
Chorus
Verse
Pre-Chorus
Chorus
End
  development and support by
dmitry ivanov