rock
 
|tablatures   |lyrics   |discussion forums   |more tabs @ XGuitar.com

Rainbow tabs

Kill The King guitar tab

p.m.
E----------------------
B----------------------
G----------------------
D----------------------
A----------------------
E--0-0-0-0-00000000----


		  p.m.
E--------------------------------------
B--------------------------------------
G--------------------------------------
D--5---4---5---4-----------------------
A--3---3---3---3-----------------------
E-----------------0-0-0-0-00000000-----


  Chorus
E----------------
B----------------
G----------------
D----------------
A--2--5--4--3----
E--0--3--2--1----


  during chorus
   5X        5X       5X       5X
E---------|---------|--------|--------|
B---------|---------|--------|--------|
G---------|---------|--------|--------|
D---------|---------|--------|--------|
A--0h5h7--|-0h7h10--|-0h7h9--|-0h7h8--|
E---------|---------|--------|--------|


  Interlude
   p.m.
E-----------------------
B-----------------------
G-----------------------
D-----------------------
A-----------------------
E--0-0-0000-0-0-0000----



  Chorus Riff   p.m.
E---------------------------------
B---------------------------------
G---------------------------------
D--5---6---3----------------------
A--5---6---3----------------------
E--3---4---1---0-0-0-0-0-0-0-0----
  development and support by
dmitry ivanov