rock
 
|tablatures   |lyrics   |discussion forums   |more tabs @ XGuitar.com

Rainbow tabs

I Surrender bass tab

I Surrender


BASS

G||--0--0--0--0--0--0---------|--0--0--0--0--0--0---------|
D||--------------------3-0----|--------------------3-0----|
A||---------------------------|---------------------------|
E||------------------------3--|------------------------3--|



-----------0--0--0--0--0--|--0--0--0--0--0-----------|----------------------|
--------------------------|-----------------------0--|--0-------------------|
--------------------------|-----------------3--3-----|----------------------|
--3--3--3-----------------|--------------------------|-------------1--1--3--|



-----------------------|---------------------|-------------------------|
-----------------------|---------------------|----------------------0--|
------------------0----|--1------------------|----------------3--3-----|
--3----3--1--3---------|-----------1--1------|--3--3--1--3-------------|



----------------------|------------------------|---------------------|
--0-------------------|------------------------|---------------------|
----------------------|-------------------0----|--1------------------|
-------------1--1--3--|--3---3-3--1--3---------|-----------1--1------|



-------------------------|--------------------------|----------------------|
-------------------------|--------------------------|--1--1----3-----------|
-------------------------|--------------------------|-------------------3--|
--3--3--1--3----3--3--3--|--3--3--3--3--3--3--3--3--|----------------------|



----------------------|-----------------------|--------------------------|
----------1-----------|--1--1----3----3-------|--------------------------|
--1--1-------------1--|------------------3----|--------------------------|
----------------------|-----------------------|--3--3--3--3--3--3--3--3--|



----------------------|-----------------------|---------------------------|
--1--1----3-----------|-----3--0--1------1----|---------------------------|
-------------------3--|--1--------------------|--0--0--0--0--0--0--0--3-4-|
----------------------|-----------------------|---------------------------|



--------------------------|--------------------------|----------------------|
--0--0--0--0--0--0--0--0--|--0--0--0--0--0--0--0--0--|-----------1----------|
--------------------------|--------------------------|----------------------|
--------------------------|--------------------------|--3--3--3-------------|



----------------------|---------------------|--------------------------|
-----------0----------|--1--1---------------|--0--0--0--0--0--0--0--0--|
----------------------|----------3----------|--------------------------|
--1--1--1-------------|---------------------|--------------------------|



----------------------|----------------------|---------------------|
-----------1----------|-----------0----------|--1--1---------------|
----------------------|----------------------|----------3----------|
--3--3--3-------------|--1--1--1-------------|---------------------|



------------------------|--------------------------|-----------0------------|
--0------0--0--0--0---0-|--0--0--0--0--0--0--0--0--|------------------------|
------------------------|--------------------------|----------------0--1----|
------------------------|--------------------------|--3--3--3---------------|



-----------------------|-----------------------|------------------------|
---------------0--1----|--3--3-----------------|-------------------0----|
--3--3----3------------|------------------0----|--1---1-1--1----3-------|
-----------------------|----------1----3-------|------------------------|



------------------------|------------------------|------------------------|
--1--1----1----0--------|--0---0-0--0----0--0----|------------------------|
------------------3--1--|------------------------|----------------0--1----|
------------------------|------------------------|--3--3--3--3------------|



-------------------------|------------------------|-------------------------|
-------------------------|------------------------|-------------------0--3--|
--3---3-3--3----1--0-----|-------------------0----|--1---1-1--1----3--------|
----------------------3--|--1---1-1--1----3-------|-------------------------|



-------------------------|----------------------|--0--0--0--0--0--0--0--0--|
--1---1-1--1----0--------|--0------0----0--0----|--------------------------|
-------------------3--1--|----------------------|--------------------------|
-------------------------|----------------------|--------------------------|



--0--0--0--0--0-----------|----------------------|-----------------------|
-----------------------0--|--0-------------------|-----------------------|
-----------------3--3-----|----------------------|------------------0----|
--------------------------|-------------1--1--3--|--3----3--1--3---------|



---------------------|-------------------------|----------------------|
---------------------|----------------------0--|--0-------------------|
--1------------------|----------------3--3-----|----------------------|
-----------1--1------|--3--3--1--3-------------|-------------1--1--3--|



------------------------|---------------------|-------------------------|
------------------------|---------------------|-------------------------|
-------------------0----|--1------------------|-------------------------|
--3---3-3--1--3---------|-----------1--1------|--3--3--1--3----3--3--3--|



--------------------------|----------------------|----------------------|
--------------------------|--1--1----3-----------|----------1-----------|
--------------------------|-------------------3--|--1--1-------------1--|
--3--3--3--3--3--3--3--3--|----------------------|----------------------|



-----------------------|--------------------------|----------------------|
--1--1----3----3-------|--------------------------|--1--1----3-----------|
------------------3----|--------------------------|-------------------3--|
-----------------------|--3--3--3--3--3--3--3--3--|----------------------|



-----------------------|---------------------------|--------------------------|
-----3--0--1------1----|---------------------------|--0--0--0--0--0--0--0--0--|
--1--------------------|--0--0--0--0--0--0--0--3-4-|--------------------------|
-----------------------|---------------------------|--------------------------|



--------------------------|----------------------|----------------------|
--0--0--0--0--0--0--0--0--|-----------1----------|-----------0----------|
--------------------------|----------------------|----------------------|
--------------------------|--3--3--3-------------|--1--1--1-------------|



---------------------|--------------------------|----------------------|
--1--1---------------|--0--0--0--0--0--0--0--0--|-----------1----------|
----------3----------|--------------------------|----------------------|
---------------------|--------------------------|--3--3--3-------------|



----------------------|---------------------|------------------------|
-----------0----------|--1--1---------------|--0------0--0--0--0---0-|
----------------------|----------3----------|------------------------|
--1--1--1-------------|---------------------|------------------------|



--------------------------|-----------0------------|------------------------|
--0--0--0--0--0--0--0--0--|------------------------|------------------------|
--------------------------|----------------0--1----|--3--3----3----1--0-----|
--------------------------|--3--3--3---------------|---------------------3--|



-----------------------|-----------------------|-----------------------|
----------3------------|------------------0----|--1--1----1------------|
--------------------0--|--1--1----1----3-------|-----------------1--3--|
--1--1-----------1-----|-----------------------|-----------------------|



------------------------|-----------0------------|-----------------------|
--0--0----0-------------|------------------------|--------------0--1--2--|
---------------3--1--0--|----------------0--1----|--3------3-------------|
------------------------|--3--3--3---------------|-----------------------|



----------------------|------------------------|------------------------|
--3-------------------|------------------0--3--|--1--1----1-------------|
-----------------0----|--1--1----1----3--------|---------------1--3--1--|
---------1----3-------|------------------------|------------------------|



----------------------|--------------------------|--------------------------|
--0------0----0--0----|--0--0--0--0--0--0--0--0--|--0--0--0--0--0--0--0--0--|
----------------------|--------------------------|--------------------------|
----------------------|--------------------------|--------------------------|



--------------------------|--------------------------|----------------------|
--0--0--0--0--0--0--0--0--|--0--0--0--0--0--0--0--0--|-----------1----------|
--------------------------|--------------------------|----------------------|
--------------------------|--------------------------|--3--3--3-------------|



----------------------|---------------------|--------------------------|
-----------0----------|--1--1---------------|--0--0--0--0--0--0--0--0--|
----------------------|----------3----------|--------------------------|
--1--1--1-------------|---------------------|--------------------------|



----------------------|----------------------|---------------------|
-----------1----------|-----------0----------|--1--1---------------|
----------------------|----------------------|----------3----------|
--3--3--3-------------|--1--1--1-------------|---------------------|



------------------------|--------------------------|-----------0------------|
--0------0--0--0--0---0-|--0--0--0--0--0--0--0--0--|------------------------|
------------------------|--------------------------|----------------0--1----|
------------------------|--------------------------|--3--3--3---------------|



-----------------------|-----------------------|------------------------|
---------------0--1----|--3--3-----------------|-------------------0----|
--3--3----3------------|------------------0----|--1---1-1--1----3-------|
-----------------------|----------1----3-------|------------------------|



------------------------|------------------------|------------------------|
--1--1----1----0--------|--0---0-0--0----0--0----|------------------------|
------------------3--1--|------------------------|----------------0--1----|
------------------------|------------------------|--3--3--3--3------------|



-------------------------|------------------------|-------------------------|
-------------------------|------------------------|-------------------0--3--|
--3---3-3--3----1--0-----|-------------------0----|--1---1-1--1----3--------|
----------------------3--|--1---1-1--1----3-------|-------------------------|



-------------------------|----------------------|-----------0------------|
--1---1-1--1----0--------|--0------0----0--0----|------------------------|
-------------------3--1--|----------------------|----------------0--1----|
-------------------------|----------------------|--3--3--3---------------|



-----------------------|-----------------------|------------------------|
---------------0--1----|--3--3-----------------|------------------------|
--3--3----3------------|------------------0----|--1---1-1--1----3--1----|
-----------------------|----------1----3-------|------------------------|



----------------------|--0--------------------|-------------------|------|
---------0----0--0----|---------0----0--0--0--|-------------------|------|
----------------------|-----------------------|-------------------|------|
--3-------------------|-----------------------|--3----------------|------|



------||
------||
------||
------||
  development and support by
dmitry ivanov