rock
 
|tablatures   |lyrics   |discussion forums   |more tabs @ XGuitar.com

Rainbow tabs

Gates Of Babylon bass tab

Song:Gates of babylon
Autor: Rainbow
Album: Long live rock'n'roll
Tabbed by Sav Sacchetti of Thanks Mama 

RIFF 1   part A until--------->here (part B
G|---------------------------|------------------------1----|
D|---------------------2-3-0-|--------------------2-3------|
A|---------------------------|-----------------------------|
E|-0--0-0-0--0--0-0-0--------|-0--0-0-0--0--0-0-0----------|

riff 2			   riff 3
G|------------------------|-5-4-2-1-2-5------------------|
D|-----2-3-0-2-1----------|------------------------------|
A|---------------3-2-0----|------------------------------|
E|---------------------4--|------------------------------|

riff 4 (verse goes "the power of what.....")
G|----B chord------------G chord--------------A chord----------------|
D|-------------------------------------------------------------------|
A|-2--2-2-2---2--2-2-2-----------------------------------------------|
E|---------------------3--3-3-3---3--3-3-3---5--5-5-5---5--5-5-5-----|

G|------------|
D|-5---4---2--|than again with B(A|2-...),G(E|3-...), A(E|5-...) chords and than A chord again
A|------------|
E|------------|

then (sleep with the devil and than you must pay...)
G|--------------------|
D|--------------------|
A|-2-3-2-0---0-2-3-2--|then A chord and
E|---------3----------|

"sleep with the devil the devil will take you away..:"
|---------------------------|
|---------------------------|
|2-3-2-0---0-2-3-2-0--------|
|--------3-----------3-2-0--|

During solo there are some improvvisations around the root notes
this is not a diffucult song, just listen to the record.

note: this is Malmsteen's version of the song, the only difference between the original
Rainbow song is that you've to get higher every note: e.g. riff A would become

G|--------------------9-10-7-|
D|---------------------------|
A|-7--7-7-7--7--7-7-7--------|
E|---------------------------|

I can't tell ya which one sounds better, I do both randomly!
have fun!
								tabbed by Sav, Rock on.
  development and support by
dmitry ivanov