rock
 
|tablatures   |lyrics   |discussion forums   |more tabs @ XGuitar.com

Rainbow tabs

Catch The Rainbow bass tab

BASS

G||------------------|----------------------|-------------------------|
D||------------------|----------------------|-------------------------|
A||------------------|----------------------|-------------------------|
E||------------------|--0--------0--0--0----|--3-------3-3-3-3----3-3-|



-----------------------|-------------------|----------------------|
---------------------0-|-------------------|----------------------|
--0-------0-3----------|-------------------|--3--------3----3--2--|
-------------------3---|--0----------------|----------------------|



------------2------------|--------------------|---------------------|
----------2---2----------|-----------0--------|------------------0--|
--0-------------0------0-|--------------------|--3-------------2----|
---------------------0---|--0-----------------|---------------------|



---------------------------|--------------0-------------|
---------------------------|------------0---0-----------|
-----2-------------------2-|----------------------------|
--0-----0----0-0-0--0--0---|--3--3--3---------3--3--3-3-|



-------------------------|--------------------|---------------------|
-------------------------|-----------0--------|------------0--------|
--0--0--0---0-3----3---4-|--------------------|--3----3-------------|
-------------------------|--0-----------------|---------------------|



------------------------|-------------------------|-------------------------|
------------------------|-----------0---------0---|-------------------------|
----------------------2-|-------------------------|--0--0--0----3--3--3---4-|
--0----0----0--0--0-----|--3----3-----3----3----3-|-------------------------|



----------------------|---------------------|----------------------------|
--2-----2----0--------|---------------------|----------------------------|
-----2----------------|---------------------|--0---0-0-0----0---0-0-0----|
----------------------|--0------------0--3--|----3------------0----------|



---------------------------|---------------------------|
---------------------------|--0----0--0--------------0-|
--------------2------------|-------------0--0--0-2-4---|
--0-0-0-0-0-----0--0--0----|---------------------------|



-------------------------|----------------------------|
-------------------------|----------------------------|
-------------------------|--0---0-0-0------0-0--0--0--|
--0--0--0---0-0----0--3--|----3----------0------------|



---------------------------|----------------------|---------------------|
---------------------------|----------------------|------------0--------|
-------2-----2---2---------|--3------3--2-------2-|--3------3-----------|
--0--0---0-----0---0--0----|----------------------|---------------------|



----------------------|-------------------------|--------------------------|
--0----------------1--|-----------------------0-|-----------------------0--|
----------------------|--0----0---0-0--0--0-----|----2--------2------------|
-----0----------0-----|-------------------------|--0---0--0-----0----0-----|



-----------------------|----------------------|--------------------|
--------------------0--|----------------------|--0-----------------|
--3-------3-3----3-----|-----------2----------|-----------3--------|
-----------------------|--0----0-----0--------|--------------------|



----------------------|-------------------------|--------------------------|
--0---------------0---|-------------------------|-----------0----------0---|
----------------2---2-|-----------2-----2-----2-|--------------------------|
----------------------|--0----0-----0-----0-----|--3----3-----3---3-3----3-|



----------------------------|------------------------|
----------------------------|------------0-------0---|
--0-0-0----0-0-3-3-3----3-3-|------------------2-----|
----------------------------|--0----0--------------3-|



-----------------------------|----------------------------|--------------------|
-----------------------------|------------0---0-----------|--------------------|
-------------2---2-----------|----------------------------|--0--------3--------|
--0--0-0-0-----0---0-0-0---0-|--3--3--3-----3---3--3--3-3-|--------------------|



-------------------------|--------------------------|
-------------------------|--------------------------|
--------------2-------2--|--3----3---3-3----3-3-2-2-|
--0----0----0---0--0-----|--------------------------|



-------------------------------|---------------------|-----------------------|
---------------------------0-1-|------------0--------|-----------------------|
--0-0-0---0-----0---0-0--0-----|---------------------|-----------------------|
--------3-----0---0------------|--0----0-------------|--0--------0--0--0-3---|



----------------------------|---------------------------|
----------------------------|---------------------------|
--0---0-0-0----0---0-0-0----|--------------2------------|
----3------------0----------|--0-0-0-0-0-----0--0--0----|



---------------------------|-------------------------|
--0----0--0--------------0-|-------------------------|
-------------0--0--0-2-4---|-------------------------|
---------------------------|--0--0--0---0-0----0--3--|



----------------------------|---------------------------|----------------------|
----------------------------|---------------------------|----------------------|
--0---0-0-0------0-0--0--0--|-------2-----2---2---------|--3------3--2-------2-|
----3----------0------------|--0--0---0-----0---0--0----|----------------------|



---------------------|--------------------|--------------------|
------------0--------|--0-----------------|--------------------|
--3------3-----------|--------------------|-----0--------------|
---------------------|-----0--------------|--3-----------------|



----------------------|-------------------------|--------------------------|
--0----------------1--|-----------------------0-|-----------------------0--|
----------------------|--0----0---0-0--0--0-----|----2--------2------------|
-----0----------0-----|-------------------------|--0---0--0-----0----0-----|



-----------------------|----------------------|----------------------------|
--------------------0--|----------------------|----------------------------|
--3-------3-3----3-----|-----------2----------|--0----0-----0---0--0---0-0-|
-----------------------|--0----0-----0--------|-----------0---0------0-----|



---------------------------|---------------------------|
---------------------------|-------------------------0-|
----2---------2------------|--3----3-----3---3-----3---|
--0---0-0-0-----0--0--0----|-----------3---3----0------|



--------------------------|----------------------------|
-----------------------0--|--------------------------0-|
--------------------------|--0----0-----0---0--0---0---|
--0--0--0---0-0--0--0-----|-----------0---0------0-----|



-----------------------------|----------------------------|
---------------------------0-|--------------------------0-|
----2--------2---2-----------|--3-----3---2-3---3--3------|
--0---0--0-----0---0--0--0---|------3---------3------3----|



--------------------------|-----------------------------|
-----------------------0--|---------------1-------------|
------------2-------------|--0----0---0-0-------0---0-0-|
--0--0--0-----0--0--0-----|-----------------0-4---1-----|



----------------------------|----------------------------|
-------------------------0--|----------------------------|
-------------2--------------|--0----0-0----0-----0-0-0-0-|
--0-0-0--0-----0-0-0--0-----|------------0-----0---------|



---------------------------|---------------------------|
------------------------0--|------------------------0--|
------------2--------------|--3----3-----3-3----3-3----|
--0---0-0-----0-0---0-0----|-----------3------3--------|



---------------------------|-----------------------------|
------------------------0--|-----------------------------|
------------2--------------|--0-0----0-----0-0----0----0-|
--0--0--0-----0-0-0--0-----|-------0-----0------0---0----|



----------------------------|----------------------------|
-------------------------0--|--------------------------0-|
-------------2------2-------|--3----3-----3-3----3---3---|
--0-0-0--0-----0-0----0-----|-----------3------3---3-----|



---------------------------|----------------------------|
------------------------0--|--------------------------0-|
-------------2-------------|--0-----0-0---0-----0-0-2---|
--0-0-0--0-----0-0---0-----|------0-----------0---------|



---------------------------|-----------------------------|
------------------------0--|---------------------------0-|
-------------2-----2-------|--3-----3-3----3---3-----3---|
--0--0-0-0-----0-----0-----|------3------3-------3-3-----|



----------------------------|-----------------------------|
-------------------------0--|---------------------------0-|
-------------2---2----------|--0-----0-0----0-0---0-0-2---|
--0--0-0-0-----0---0--0-----|------0------0---------------|



---------------------------|------------------------------|
------------------------0--|--------------------------0-1-|
-------------2-----2-------|--3-----3-3---------0-3-4-----|
--0--0-0-0-----0-----0-----|------3------0--2-3-----------|



----------------------------|-----------------------------|
-------------------------0--|---------------------------0-|
-------------2---2----------|--0-----0-0----0-0---0-0-2---|
--0--0-0-0-----0---0--0-----|------0------0---------------|



---------------------------|------------------------------|
------------------------0--|--------------------------0-1-|
-------------2-----2-------|--3-----3-3---------0-3-4-----|
--0--0-0-0-----0-----0-----|------3------0--2-3-----------|



----------------------------|-----------------------------|
-------------------------0--|---------------------------0-|
-------------2---2----------|--0-----0-0----0-0---0-0-2---|
--0--0-0-0-----0---0--0-----|------0------0---------------|



---------------------------|------------------------------|
------------------------0--|--------------------------0-1-|
-------------2-----2-------|--3-----3-3---------0-3-4-----|
--0--0-0-0-----0-----0-----|------3------0--2-3-----------|



----------------------------|-----------------------------|
-------------------------0--|---------------------------0-|
-------------2---2----------|--0-----0-0----0-0---0-0-2---|
--0--0-0-0-----0---0--0-----|------0------0---------------|



---------------------------|------------------------------|
------------------------0--|--------------------------0-1-|
-------------2-----2-------|--3-----3-3---------0-3-4-----|
--0--0-0-0-----0-----0-----|------3------0--2-3-----------|



----------------------------|-----------------------------|
-------------------------0--|---------------------------0-|
-------------2---2----------|--0-----0-0----0-0---0-0-2---|
--0--0-0-0-----0---0--0-----|------0------0---------------|



---------------------------|------------------------------|
------------------------0--|--------------------------0-1-|
-------------2-----2-------|--3-----3-3---------0-3-4-----|
--0--0-0-0-----0-----0-----|------3------0--2-3-----------|



----------------------------|-----------------------------|
-------------------------0--|---------------------------0-|
-------------2---2----------|--0-----0-0----0-0---0-0-2---|
--0--0-0-0-----0---0--0-----|------0------0---------------|



---------------------------|------------------------------|---||
------------------------0--|--------------------------0-1-|---||
-------------2-----2-------|--3-----3-3---------0-3-4-----|---||
--0--0-0-0-----0-----0-----|------3------0--2-3-----------|---||
  development and support by
dmitry ivanov