rock
 
|tablatures   |lyrics   |discussion forums   |more tabs @ XGuitar.com

Radiohead tabs

You Never Wash Up After Yourself guitar tab

"You Never Wash Up After Yourself"


-------1-----------1-----------1-----------1-----
-----3---3-------3---3-------3---3-------3---3---
---2-------2---2-------2---0-------0---0-------0-
-0-----------------------------------------------
-------------3-----------2-----------------------
-------------------------------------3-----------


-------0-----------0-----------0-----------0-----
-----1---1-------1---1-------1---1-------1---1---
---0-------0---0-------0---2-------2---2-------0-
-------------------------------------------------
-3-----------2-----------0-----------0-----------
-------------------------------------------------


-------0-----------3-----------0-----------0-----
-----1---1-------3---3-------0---0-------1---1---
---2-------2---0-------0---1-------1---2-------2-
-------------------------------------------------
------------------(2)----------------0-----------
-1-----------3-----------4-----------------------


-------3-----------3-----------3-----------3-------
-----1---1-------3---3-------1---1-------1---1-----
---0-------0---0-------0---0-------0---0-------0---
---------------------------------------------------
-3----------------(2)----3-----------3-----------3-
-------------3-------------------------------------

I must get out once in a while
Everything is starting to die
The dust settles, the worms dig
Spiders crawl over the bed

I must get out once in a while
I eat all day and now I'm fat
Yesterday's meal is hugging the plates
You never wash up after yourself


Tabbed By: Denis Ducasse
Corrections by: stuart@winchester.force9.co.uk

-----------------------------------------------------------------------


"You Never Wash Up After Yourself"

e ---1-----1-----1-----1--
B --3-3---3-3---3-3---3-3-
G -2---2-2---0-0---0-0---0
D 0-----------------------
A ------3-----2-----------
E ------------------3-----

e ---0-----0-----0-----0--
B --1-1---1-1---1-1---1-1-
G -0---0-0---0-2---2-2---0
D ------------------------
A 3-----2-----0-----0-----
E ------------------------

e ---0-----3-----0-----0--
B --1-1---3-3---0-0---1-1-
G -----0-0---0-----1-2---0
D -3-----------0----------
A ------------------0-----
E 1-----3-----4-----------

e ---3-----3-----3-----3--
B --1-1---0-0---1-1---1---
G -0---0-----0-0---0-0--0-
D -------0----------------
A 3-----------3-----3----3
E ------3-----------------

I must get out once in awhile
Everything is starting to die
The dust settles, the worms dig
The spiders crawl over the bed

I must get out once in awhile
I eat all day and now Iím fat
Yesterday's meal is hugging the plates
You never wash up after yourself


Tabbed by Ashwin Singh
abu05@hotmail.com
  development and support by
dmitry ivanov