rock
 
|tablatures   |lyrics   |discussion forums   |more tabs @ XGuitar.com

Radiohead tabs

You guitar tab

YOU

(intro)

e --------------0-------------------0-----------------0---------------0----------0--
B ---------0----------------15------x2--------0------x2------0----------------------              
G --13-------------13------------------16--------------14------------14-------------
D ----------------------------------------------------------------------------------
A ----------------------------------------------------------------------------------
E ----------------------------------------------------------------------------------

E, Em, Cadd9, G5, D/F# (repeat)

(verse)

E5, C, G, D, E, C, G, D

C#m7, Cmaj7

e ---------------------------------------------------------------------------------------------
B -----------------------------------------------------------14-----12-------------------------
G --------------------12-------------------------------------14-----12------------------0------
D --12-s-14---------12------14----14------12-s-14-------------------14-s-12---0----------------
A -----------------------------------------------------------------------------------14-----0--
E -----------0000-------------------------00---------0000--------------------------------------

C#m7, Cmaj7

(solo)

e --0--0-------0-------0------0------------0----0---0--------0----0-------0---0-------0--
B -----3--------5------5------5------------7----7----7-------8-----8------8---10----10---
G ---------------------------------------------------------------------------------------
D ---------------------------------------------------------------------------------------
A ---------------------------------------------------------------------------------------
E ---------------------------------------------------------------------------------------

e ----0------0--------0---------0--------0---0---0---0--0---0--
B --10----12------12--------12------13-13-13-12-12-12----------
G -------------------------------------------------------------
D -------------------------------------------------------------
A -------------------------------------------------------------
E -------------------------------------------------------------

e ------------------------------
B --5-------0-------3--------0--
G ------------------------------
D ------------------------------
A ------------------------------
E ------------------------------

(repeat solo)

(2nd Verse same as before except)

e --------------------------------------------------------3------2--------0--
B ----------------------3--------------------------3----------------------0--
G ---------------------------0--------------0--------------------------------
D --------2-----2----------------0-------------------------------------------
A --3------------------------------------------------------------------------
E --------------------------------------3------------------------------------

(is the riff after the end of the lines, the ending is E Cadd9 G5 D5)

(riff 1)

e ------------10------------10-----------------------------------
B --9------9--------9-----9------12-------12-------10------10----
G ------9--------9------9-----9-------9--------9-------9------9--
D ----9---------------9-------------9--------9-------9-----------
A ---------------------------------------------------------------
E ---------------------------------------------------------------

(riff 1a)

e --------------------------------------------------------------------------
B --9------9------9------9------12-----12-----10-----10-------9------9------
G ------9------9------9------9-------9------9------9------9-------9------9--
D ----9------9------9------9-------9------9------9------9-------9------9----
A --------------------------------------------------------------------------
E --------------------------------------------------------------------------

e --------------------------------------------------
B --8-------8-------12------12------10------10------
G -------9------9--------9-------9-------9-------9--
D ----9-------9--------9-------9-------9-------9----
A --------------------------------------------------
E --------------------------------------------------

(play riff ia through this)

e -------------------------------------------------------------------0--0--
B --------0----0-----------3-----3-------3--3--3--3--3--3--0---12----0--0--
G --x-----1----0--------0-----------0----0--0--0--0--0--0--1---14/---0--0--
D --x--0--2----2-----2-------------------0--0--0--0--0--0--2---------0--0--
A --x-----2----2-----3-------------------------------------2---------------
E --x--2--0----0-------------------------3--3--3--3--3--2--0---------------

e -----------------------------------------
B --3------3----3---0----------------------
G --0---0-----------0---0--0--0--0--0------
D --2-------------------0--0--0--0--0---2--
A --3-----------------------------------2--
E ----------------------3--3--3--3--2---0--

(riff 2)

e ---------------------------------------------------------------------------
B ---------------------------------------------------------------------------
G --9--9--9--9--9--9--8--8--8--8--8--8--8-------------------12---------------
D --11-11-11-11-11-11-10-10-10-10-10-10-10---12h14----------12--14-14--------
A --11-11-11-11-11-11-10-10-10-10-10-10-10-----------------------------------
E --9--9--9--9--9--9--8--8--8--8--8--8--8----------0-0-0-0-------------0--0--

e ---------------------------------------------------------------------------
B ------------------14p12----------------------------------------------------
G ------------------14p12------------9--9--9--9--9--9--8--8--8--8--8--8--8---
D --12h14-----------------14p12------11-11-11-11-11-11-10-10-10-10-10-10-10--
A ------------------------------14---11-11-11-11-11-11-10-10-10-10-10-10-10--
E ---------0-0-0-0-------------------9--9--9--9--9--9--8--8--8--8--8--8--8---

(riff 3)

e --0---0-0-0-0-0---0-0-0-0-0---0-0-0-0-0----0--0--0--0--0--0--0--0--0--0--0------
B --3/5-5-5-5-5-5/7-7-7-7-7-7/8-8-8-8-8-8/10-10-10-10-10-10/12-12-12-12-12-12/13--
G --------------------------------------------------------------------------------
D --------------------------------------------------------------------------------
A --------------------------------------------------------------------------------
E --------------------------------------------------------------------------------

e --0--0--0--0--0-----0--0--0--0-----------------------0----
B --13-13-13-13-13\12-12-12-12-12\5--3p0---------------4-/--
G ----------------------------------------- Riff 3 ---------
D ----------------------------------------------------------
A ----------------------------------------------------------
E ----------------------------------------------------------

(riff 4)

e --0----0--------------------------------------------3--2--0--
B --0----0--------------------------------3---------3-------0--
G --1----0---------13--\--12--\5------------0-----0------------
D --2----2--------------------------2--2------0----------------
A --2----2------------------------3----------------------------
E --0----0--------------------------------------3--------------

(riff 5)
 
    E         Em       Cadd9      G
e ----0---------0-----------------------------
B ------0---------0----3--3-3-------3---------
G --------1---0-----0--0--0---0-------0--2-2--
D --2---------2--------2--2-----0--------0-0--
A --2---------2--------3--3-------------------
E --0---------0-------------------3-----------

e --0-------------------------3-------------------------------------------
B --0--0-0-0-0-0---3----------3--3----------------------------------0-----
G --0--0-0-0-0-0---0----------0--0--0--0------------0--0-0----------0--0--
D --2--2-2-2-2-2---2----------0--0--0--0------------2--2-2----------2--0--
A --2--2-2-2-2-2---3---2--0-------------------------2--2-2----------2-----
E --0--0-0-0-0-0--------------3-----2--2---0--0--0--0--0-0--0--0--0-0-----

e --------------------------------------------0---0--0---0---------------------
B -------3--------3--3-----2------------------3/--3/-3/--3/--------------------
G --0--0---0------0--0--0--0--- Riff 3 x2 -------------------------1-----------
D --2--------2p0--0--0--0--0---------------------------------------2--2--2--2--
A --3--------------------------------------------------------------2--2--2--2--
E ----------------3-----2------------------------------------------0--0--0--0--

(riff 6)

e ----------------------------------------------------------0--0--0-----------
B ----------------------------------------------------------0--0--0-----------
G --9---9-9-9--9-9-9-9-9-9-9-9-9-9-9-9-9-9-9-- Riff 1 x4 ---1--1--1-----------
D --9---9-9-9--9-9-9-9-9-9-9-9-9-9-9-9-9-9-9----------------2--2--2-----------
A ----------------------------------------------------------2--2--2-----------
E ----------------------------------------------------------0--0--0--0--0--0--

e --0--0--0-----------------------------------------------
B --0--0--0-------------3--3--3--3--3--3---3--3--3--------
G --1--1--1-------------0--0--0--0--0--0---0--0--0--2--2--
D --2--2--2-------------2--2--2--2--2--2---0--0--0--0--0--
A --2--2--2-------------3--3--3--3--3--3------------------
E --0--0--0--0--0--0-----------------------3--3--3--------

e ------------------------------------0--0----------------------
B ------------------------------------0--0-------------------0--
G ------------------------------0--0--0--1-------------------0--
D --2---------2---------2-------2--2--0--2-------------------0--
A --3---------3---------3-------3--3-----2-------------------0--
E ----0-0-0-0---0-0-0-0---0-0-0----------0-------------------0--
  development and support by
dmitry ivanov