rock
 
|tablatures   |lyrics   |discussion forums   |more tabs @ XGuitar.com

Radiohead tabs

You bass tab

Artist: RADIOHEAD
Album: Pablo Honey
Song: You
Tunning: EADG
Tabbed by Guillaume Tixhon

G :------------------------------------------------|
D :------------------------------------------------|
A :--------------------------3--33-3-3-3-----------|
E :--0--00-0-0-0-0--00-0-0-0-------------3--33-3-2-|

G :-----------------------------------------------|
D :-------------------------------------5--55-5-4-|
A :-----------/7--77-7-7-7\-3--33-3-3-3-----------|
E :--0--00-0-0------------------------------------|

G :-----------------------------------------------------|
D :-----------------------------------------------------|
A :--4-4-4-4-4-4-3-3-3-3-3-3-------3H4-3H4------3H4-3H4-|
E :--------------------------0--00---------0-00---------|
  development and support by
dmitry ivanov