rock
 
|tablatures   |lyrics   |discussion forums   |more tabs @ XGuitar.com

Radiohead tabs

The Bends bass tab

Artist: Radiohead
Title: The Bends
Album: The Bends

Tabbed by Camello (chrismellon@hotmail.com)


Intro (also Chorus):
G|-------------------------------|
D|-------------------------------|
A|-5-5-5-3-2-3---2--3--2-3-2-----|
E|-------------3-------------3-0-|

G|----------------------0-2-0---|
D|--------------------2-------2-|
A|-5-5-5-3-2-3---2--3-----------|
E|-------------3----------------|

G|------------------------------|
D|------------------------------|
A|-5-5-5-3-2-3---2--3-2-3-2-----|
E|-------------3------------3-0-|

G|-----/2-0----------/4---------------|
D|----------4-------------------------|
A|-5-5--------5--3-------3--2-3-2-----|
E|-----------------3--------------3-0-|

Verses:
G|-----------------------------|
D|-----------------------------|
A|-------------2-3--3---3--3---|
E|-0--0-2-3--3--------3------3-|

G|-------------------------------------|
D|-------------------------------------|
A|---------------3--3-2-3-3--2-3-2-----|
E|-0--0-5-3--3-0-------------------3-0-|

Guitar fill part:
G|--------------------------3-0-3-0-8-6-4---|
D|------------------------3---------------5-|
A|------------------3-3-5-------------------|
E|-5-5-0-3-4-5-3-0--------------------------|

Verses:
G|---------------------------------------------------|
D|-2----2------4-5----5-5--------------------------5-|
A|----2---2---------5------5-3----3-3----3-5-7-7-7---|
E|----------0-------------------3------3-------------|

G|-----------------------------------------------------|
D|-2----2------5h7p5----5-/7-5-------------------------|
A|----2---2-----------7--------3----3-3----3-2-3-2-----|
E|----------0---------------------3------3---------3-0-|

Chorus:
G|------------------------0-2-0---|
D|----------------------2-------2-|
A|-5-5-5-3-2---3---2--3-----------|
E|-----------3---3----------------|

G|-------/2-0---------/4--------------|
D|------------4-----------------------|
A|-5-5-5--------5-3-------3-2-3-2-----|
E|------------------3-------------3-0-|

Bridge One:
G|---------------------------------|
D|---------------------------------|
A|-0-0---0-0--0-0---0-0------------|
E|-----------------------0-0---0-0-|

G|------------------------|
D|------------------------|
A|-0-0---0-0--0-0---0-0-2-|
E|------------------------|

G|---------|
D|---------| <-- eight measures of this
A|---------|
E|-0-0-0-0-|

Verses:                                    (play fast here)
G|-------------------------------------------5-5-3-3-------|
D|---------------------------------------------------5-5---|
A|---------------------------3--0-3-3----3-5-------------3-|
E|-0--0-0--3h5p3--0h3p0h3--0-----------3-------------------|

G|-----------------------------------------------------|
D|-2----2------5h7p5----5-/7-5-------------------------|
A|----2---2-----------7--------3----3-3----3-2-3-2-----|
E|----------0---------------------3------3---------3-0-|

Chorus:
G|----------------------0-2-0---|
D|--------------------2-------2-|
A|-5-5-5-3-2-3---2--3-----------|
E|-------------3----------------|

G|-------/2-0---------/4--------------|
D|------------4-----------------------|
A|-5-5-5--------5-3-------3-2-3-2-----|
E|------------------3-------------3-0-|

Bridge Two:
G|---------------------------------|
D|---------------------------------|
A|-0-0---0-0--0-0---0-0------------|
E|-----------------------0-0---0-0-|

G|------------------------|
D|------------------------|
A|-0-0---0-0--0-0---0-0-2-|
E|------------------------|

G|---------|
D|---------|
A|-3-3-3-3-| <-- five measures of this
E|---------|

G|-------------------------|
D|---------2-2-2-2-4-4-4-4-|
A|-5-5-5-5-----------------|
E|-------------------------|

Cool guitar part (repeat four times, there are slight variations):
G|--------------------------------------------|
D|-5-5-5--5--5-5---0h4-0-5-5-5--5--5-5--4h5p4-|
A|---------------3----------------------------|
E|--------------------------------------------|

G|-------------------------------------------|
D|-2-2-2----2---2-0h2-5-2-2-2----2---2---0h2-|
A|-------------------------------------3-----|
E|--------0---0----------------0---0---------|

Ending slow part:

G|-------|
D|-------|
A|-----3-|
E|-0-3---|

You can hear the bass pretty easily through most of the song, but
there are a couple parts where it's a little hard to hear. I haven't
actually Colin Greenwood play the song in a video or anything, but I
know this tab's gotta be pretty close to how it's played. Feel free to
make any corrections.
  development and support by
dmitry ivanov