rock
 
|tablatures   |lyrics   |discussion forums   |more tabs @ XGuitar.com

Radiohead tabs

Stop Whispering bass tab

#----------------------------------PLEASE NOTE---------------------------------#
#This file is the author's own work and represents their interpretation of the #
#song. You may only use this file for private study, scholarship, or research. #
#------------------------------------------------------------------------------#
#------------Created with Taborama Tab Creator-----www.taborama.com------------#
#------------------------------------------------------------------------------#

Title: stop whispering
Artist: radiohead
Album: Pablo Honey

Instrument: 4 String Bass

Tabbed by: sonny (stupidsonny@yahoo.cim)

Tuning: Standard (E A D G)

s - slide
~ - let note ring
( ) - note not played, optional

any corrections email me please

Intro:
G|--------------------------------------7s9s7------------------------||
D|----------------5~-------------------------------------------------||
A|---5~-------5~-------5~---------5~---------------------------------||
E|-------3~-----------------3~---------------------------------------||

Verse:
G|-------------------------------------------------7-----------------||
D|---------------------12----------------------5s7-------------------||
A|--5~------------8s10----10---5~---------5~-------------------------||
E|------------3----------------------(3~)----------------------------||

Bridge:                          (2X)
G|------------------------------------|-------------------------------||
D|----------------4-5-5-5-5-5-5-5-5---|------------------5--------5-5-||
A|5-5-5-5-5-5-5-5---------------------|5-5-5-5--4--2s5----------------||
E|------------------------------------|----------------3---3-3-3-3-3-3||

Chorus: (4x)
G|-----7--------7------------------------|
D|--------------------4-5-5-5-5-5-5-5-5--|
A|--5-------5----------------------------|
E|---------------------------------------|

post chorus:
G|----------7~-----------------7~-------------------------------------||
D|-------5~-------5~--------5~-------5~-------------------------------||
A|---5~------------------5~-------------------------------------------||
E|--------------------------------------------------------------------||

verse 2:
G|--------------------------------------------------------------------||
D|------------------------12------------------------------------------||
A|--5~---------5~----8s12----------(5~)---------3s5-------------------||
E|------(3~)------------------3~---------3~---------------------------||

Bridge

Chorus

Hard guitar octive part, play bridge

post chorus

Bridge(first 1/2 only)

Doesn't matter anyway-Rest

Bridge(first 1/2 only)

Bridge for rest of the song
  development and support by
dmitry ivanov