rock
 
|tablatures   |lyrics   |discussion forums   |more tabs @ XGuitar.com

Radiohead tabs

Sit Down,Stand Up guitar tab

Band :Radiohead
Song :Sit Down,Stand Up
Album : Hail To The Thief

Intro/Verse :

e|------------------------------------------------------------------------|
B|------------------------------------------------------------------------|
G|---------------------------------------------------------3---------4----|
D|----3----3---------3-----3---------6-----6-----------3----------3-------|
A|------3----3----------6----6----------8-----6---------------------------|
E|-1--------------4---------------6----------------4-----4-----4----------|

Verse 2 : (We can wipe you out....)

e|----------------------------------------------------------|
B|----------------------------------------------------------|
G|-----------------------------3---3--------3-------4---4---|
D|----3---3-------3---3----------3---3--------3-------3-----|
A|------3-----------6-------1-------------------------------|
E|-1-----------4-------------------------4--------4---------|

Bridge : (oooh...)

e|------------------------------------------------------------------|
B|-1--1--1--1--1--1-------------------------------------------------|
G|--------------------------------------6--6--6--5--5--5--5--5--5---|
D|-3--3--3--3--3--3---8--8--8--6--6--6------------------------------|
A|--------------------------------------4--4--4--3--3--3--3--3--3---|
E|-1--1--1--1--1--1---6--6--6--4--4--4------------------------------| x3

e|-----------------------------------------------------|
B|-----------------------------------------------------|
G|-8--8--8--7--7--7--4--4--4--3--3--3--3--3--3---------|
D|-----------------------------------------------------|
A|-6--6--6--5--5--5--2--2--2--1--1--1--1--1--1---------|
E|-----------------------------------------------------|

Outro : (The raindrops..)

F5        Bb5  Ab5
F5        Eb5  D5
  development and support by
dmitry ivanov