rock
 
|tablatures   |lyrics   |discussion forums   |more tabs @ XGuitar.com

Radiohead tabs

Scatterbrain guitar tab

Radiohead  - Scatterbrain
from the upcoming album "Hail to the Thief"

Intro

     C         Bm     Am       G
e-------------------------------------------------------
B---------5-------3-------1-----------------------------
G----------------------------------4--------------------
D------5--------4-------2-------------------------------
A----3--------2-------0---------5-----------------------
E-----------------------------3-------------------------
           I'm ----- walking ------out

     F#     Em       E7
e-------------------------------------------------------
B---------------------------0---------------------------
G--------2------0---------2-----------------------------
D-------------------------2-----------------------------
A------4------2--------2--------------------------------
E----2------0--------0----------------------------------

         in a force ten gale

 F#     Em       E7
e-------------------------------------------------------
B---------------------------0---------------------------
G--------2------0---------2-----------------------------
D-------------------------2-----------------------------
A------4------2--------2--------------------------------
E----2------0--------0----------------------------------

  C   Bm  Am   G
I'm   walking   out

F#    Em     E7
  in a force ten gale.

C   Bm  Am   G      F#     Em        E7
birds thrown around, bullets for hail.

		
                    fill1
C   Bm      Am    G      F#    Em     E7
the roof is pulling off by its fingernails.
your voice is rattling/rapping on my window sill


e------------------1--0--------0----0------------------
B---------4--3--2-------------1-----1------------------
G-----------------------------2-----2------------------
D-------4--------------------2------2------------------
A----2----------------------0--------------------------
E------------------------------------------------------

J-G                                    x2 |

e------------------------------------------------------
B------17--------15--------13-------12-----10------8---
G----------17-------16--------14-------12-----11-----9-
D------------------------------------------------------
A------------------------------------------------------
E------------------------------------------------------

			   |
e----------------------------------------------------
B-----16---------17-----------19-------20------------
G---------17--------16-----------20-------19---------
D----------------------------------------------------
A----------------------------------------------------
E----------------------------------------------------


e---------------------------------------1--0----------
B--------1--0-----------3--2-------3-0----------------
G---------------------------------0-------------------
D-----2--------------4--------------------------------
A---0-------------2-----------------------------------
E------------------------------3----------------------

more coming soon later
  development and support by
dmitry ivanov