rock
 
|tablatures   |lyrics   |discussion forums   |more tabs @ XGuitar.com

Radiohead tabs

Prove Yourself guitar chords

PROVE YOURSELF

    G	 G/C   C/B
e --3-- --3-- --x--
B --3-- --3-- --1--
G --0-- --0-- --0--
D --0-- --0-- --0--
A --x-- --3-- --2--
E --3-- --x-- --x--

G	G/C			 G
I can't afford to breath in this town 
G	G/C			 G
Nowhere to sit without a gun in my hand
G      C	     D	     G 
Hooked back up to my cathode ray 

C   C/B	       C
I'm better off dead

fill

e -----------
B -----------
G ------0h2--
D --0h2------
A -----------
E ----------- (2x)

Am C
    Prove Yourself (2x)

I wanna breath I wanna grow 
I'd say I want it but I don't know how 
I work, I bleed, I beg, I pray 
But I'm better off dead 
Prove Yourself 
Why?
  development and support by
dmitry ivanov