rock
 
|tablatures   |lyrics   |discussion forums   |more tabs @ XGuitar.com

Radiohead tabs

Planet Telex bass tab

Planet Telex - Radiohead
The Bends LP
Bass tab stolen from <daleau@worldnet.fr>

G|-------------------------|
D|-------------------------|
A|-5---5---5h7-------------|
E|---7---7-----0-0--0-0--0-|

G|------------------------------------------------|
D|-------------------------------------------6-7--|
A|-------------------4-5--------------------------|
E|--5h7-7-5h7-5h7--7---------4h5-5-4h5-4h5-5------|


=======================================
    Guitar Archive at Planet Telex
 http://www.underworld.net/radiohead/
Max Kolombos <rhguitar@underworld.net>
---------------------------------------
  development and support by
dmitry ivanov