rock
 
|tablatures   |lyrics   |discussion forums   |more tabs @ XGuitar.com

Radiohead tabs

Paranoid Android guitar tab

PARANOID ANDROID

Riff1
(gtr.1)(acoustic)                        
e---------------------------------------------------------------------------
B------8---------------8-----------8-----------------------3----------------
G----------8---------------8-----------8----8---8---8----------3---3---3----
D------------------0-------------------------------------0------------------
A--------------0---------------0-8--------0---0----------------------0------
E--8-----8---8---6---6---6---6--------------------6----3-----3---3----------
|
Riff2
(gtr.2)(electric)(w/flanger)
e------------------------------------------------------------------------------
B-----------------------------------------3/-/3\-----------------------------
G-----------------------------------------(2ndtime)---------------------------
D------------------------------------------------------------------------------
A------------------------------------------------------------------------------
E------------------------------------------------------------------------------


e-----------------------0--0--0----------------------------------------------0--0--0-----
B-------------3--3--3---3--3--3---------3--------------------------3--3--3---3--3--3-----
G---3---3-----3--3--2---0--0--0-------------3---3---3----3---3-----3--3--2---0--0--0-----
D-------------2--2---------------------0---------------------------2--2------------------
A-0---1-------------------------------------------0----0---1-----------------------------
E----------0-------------------------3-----3---3-----------------0--------------------(10-9)
|                                                                                     (2nd verse)
|              ~         ~       ~    ~~~                            ~~    ~         ~~~~
e-----------------------------------------------------------------------------------------------------
B-------15--15----15--15---15------15---------------------------3--3---3--3---3----3-4----------------
G---------15--15----15--14---12-12---12---------------------------3--3---3--2---0-0-------------------
D-----------------------------------------------------------------------------------------------------
A-----------------------------------------------------------------------------------------------------
E-----------------------------------------------------------------------------------------------------

Repeat Riff1 and Riff2  1.5 times

gtr.1 (strum these chords) Riff3
e----------------------------------------------------------------------------------------------
B--3----------------------------3-------------------------------3------------------------------
G--3----------------------------2-------------------------------1------------------------------
D--0----------------------------3-------------------------------2------------------------------
A---------------------------------------------------------------2------------------------------
E--3----------------------------1-------------------------------0-------------------------2----
|
gtr.2 (w/flanger)Riff 4
e--------0------------0---------------0-------------0----------------0------------0------------
B-----------3------3-----3---------------3-----3-------3----------------3-----3-----3----------
G-----3-------3--3--3------3--------2------2--2-2--------2--------1-------1--1-1------1--------
D----------------------------------------------------------------------------------------------
A---------------------------------------------------------------2------------------------------
E--3-----------------------------1------------------------------0--------------------------2---
|
Ed o'Brien (gtr.3) Riff5
e--------12-----------12---------------12------------12---------------12-----------12-----------
B-----15----15-----15----15---------15----15------15----15---------15----15-----15----15--------
G--15-----------15----------15---14------------14----------15---13-----------13----------15-----
D-----------------------------------------------------------------------------------------------
A-----------------------------------------------------------------------------------------------
E-----------------------------------------------------------------------------------------------


gtr.1 (strum these chords)
e----------------------------------------------------------------------------------------------
B--3----------------------------3-------------------------------3------------------------------
G--3----------------------------2-------------------------------1------------------------------
D--0----------------------------3-------------------------------2------------------------------
A---------------------------------------------------------------2------------------------------
E--3----------------------------1-------------------------------0------------------------------
|
gtr.2 (w/flanger)
e--------0------------0---------------0-------------0----------------0------------0------------
B-----------3------3-----3---------------3-----3-------3----------------3-----3-----3----------
G-----3-------3--3--3------3--------2------2--2-2--------2--------1-------1--1-1------1--------
D----------------------------------------------------------------------------------------------
A---------------------------------------------------------------2------------------------------
E--3-----------------------------1------------------------------0------------------------------
|
Ed o'Brien (gtr.3) 
e--------12-----------12---------------12------------12---------------12-----------12-----------
B-----15----15-----15----15---------15----15------15----15---------15----15-----15----15--------
G--15-----------15----------15---14------------14----------15---13-----------13----------15-----
D-----------------------------------------------------------------------------------------------
A-----------------------------------------------------------------------------------------------
E-----------------------------------------------------------------------------------------------

gtr.1
e--------------------------------
B-3------------------------------
G-1------------------------------
D-2------------------------------
A-2------------------------------
E-0-------------------(10-9)-----
|                     1ST time
gtr.2 (w/flanger)
e-----0------------0-------------
B--------3-----3-----3-----------
G--1-------1--1-1------1---------
D--------------------------------
A-2------------------------------
E-0------------------(11-10)-----
|                    1ST TIME
|
Ed o'Brien (gtr.3) 
-------12-----------12-----------(17)-
B---15----15-----15----15-------------
G-13-----------13----------15----(14)-
D---------------------------------2ndtime
A-------------------------------------
E-------------------------------------


gtr.1 Riff1 

gtr.2(w/flanger)
e---3------------------3--------------------------------------------------------------------------
B-----4------------------4----------3-------15--15---15--15---15-----------3------3-3--3-3--3-----
G----------------------------0--------3-------15--15---15--14---12-12--------3-----3-3--3-2--0-0--
D---------0---1---3--3----------3----------------------------------------0------------------------
A-3--------------------------------------0--------------------------------------0-----------------
E---------------------------------3------------------------------------3--------------------------

e---3------------------3--------------------------------------------------------------------------
B-----4------------------4----------3-------15--15---15--15---15-----------3------3-3--3-3--3-----
G----------------------------0--2-----3-------15--15---15--14---12-12--------3-----3-3--3-2--0-0--
D---------0---1---3--3---------------------------------------------------0------------------------
A-3-------------------------------------0-0-1----------------------------------0-0----------------
E---------------------------------3------------------------------------3--------------------------

Gtr.1 Riff3 
Gtr.3 Riff5

gtr.2 (w/flanger)
e--------0--------1p0------------0--------1p0------------0-------1p0--------
B-----------3---3-----3-3----------3---3------3-3----------3---3-----3------
G-----3-------3-----------3----2-----2------------2----1-----1--------------
D---------------------------------------------------------------------------
A----------------------------------------------------2----------------------
E--3------------------------1------------------------0------------------2---

e--------0--------1p0------------0--------1p0--------------0------------0-----------0------------0-----
B-----------3---3-----3-3----------3---3------3-3------------3------3-----3-----------3------3-----3---
G-----3-------3-----------3----2-----2------------2-----1-------1--1-1------1----1-------1--1-1------1-
D------------------------------------------------------------------------------------------------------
A-----------------------------------------------------2------------------------2-----------------------
E--3------------------------1-------------------------0------------------------0-----------------------


gtr.1 Riff6
e-------------------------------------------------------------------------
B-------------------------------------------------------------------------
G-------------------------------------------------------------------------  Repeat Riff6
D-------------------------------------------------------------------------
A-----------3--------------3--3--5--5-----------3---------5-3-0-5-5-3-0---
E-5---5--5-----5--4---4--4-------------5---5--5----5---4------------------
  [------riff6a----------------------]


gtr.1 Riff7---------------------------------------------]
e--------------------------------------------------------
B-8---8--8---8--8--8--6--6-6-6-6-6--------------8--7-6-4-
G-9---9--9---10-10-9--5--5-5-7-7-7--Riff 7 x3---9--8-7-5-
D-10--10-10--10-10-10-6--6-6-8-8-8--------------10-9-8-6-
A--------------------------------------------------------
E-8---8--8------------4--4-4-6-6-6--------------8--7-6-4--

Gtr.1
e--------------------------------------------------------------------------------------------------
B--------------------------------------------------------------------------------------------------
G---Riff6a------------Riff6a----------------------Riff6a---------------Riff6a----------------------
D--------------------------------------------------------------------------------------------------
A--------------------------------------------------------------------------------------------------
E--------------------------------------------------------------------------------------------------

Ed O'Brien    P.M----------------------------]  s.
e--------------------------------------------------------------------------------------------------
B--------------------------------------------------------------------------------------------------
G--------------------------------------------------------------------------------------------------
D--------------------------------------------------------------------------------------------------
A----------------------3---------------3-3-5-5-----------------------------3---------------3-3-5-5-
E--------------5-5-5-5---5-5-5-4-4-4-4----------5\-----------------5-5-5-5---5-5-5-4-4-4-4---------

gtr.1 Riff7

gtr.1 Riff6a        Riff6a

gtr.2(dist)>r.3 
  s.                   s.
e---------------------------------------------------------------------------------------------------------
B---------------------------------------------------------------------------------------------------------
G---------------------------------------------------------------------------------------------------------
D---------------------------------------------------------------------------------------------------------
A--------------------------------3-------------3--5--/-/-/-/-/-/--//-----------------3-----------3-5------
E-12\-----------------12\-5--5-5---5--4--4-4-4--------------------------------5--5-5---5-4-4-4-4----------
                                                  (jonny uses that button thing)

gtr.1 Riff 7 

Ed O'Brien gtr.3
Riff8---------------------------------------------------------------]
Riff8a---------s.----------]                        s.           s.
e----------------------------------------------------------------------
B----------------------------------------------------------------------
G-------------9\4--------10----Riff8ax2-------------9-\4---------------
D-10--10-10--10\5------8-10-------------------------10\5---------------
A-10--10-10-------6----8-8----------------10--10-10-------10-9-8-------
E-8---8--8--------4--4-6------------------8---8--8--------8--7-6-4\3---

gtr.1 riff6a                                      Riff6a

gtr.3 Riff 6b-------------------------------]
                                ~~~~~~~~~~~~                                                 s.s.s.s.s.
e-----------------------------------------------------------------------------------------------------------
B-----------------------------------------------------------------------------------------------------------
G-----------------------------------------------------------------------------------------------------------
D-----------------------------------------------------------------------------------------------------------
A------------3-------------3--5--------------------------3------------3--5------------------5/14\5/15\5/10--
E-----5--5-5---5--4--4-4-4------------------------5--5-5---5-4--4-4-4---------------------------------------
|
gtr.2
 Trem.s.
e--4-/-20--------------------20/-20------------------20-----20---20-----20-----20----------------------------
B------^^------------------------^^---------------------22/---------22/-----------22/-22/-22/-22/-22/-22/--0-
G------------------------------------------------22/-----------------------22/-----------------------------0-
D----------------------------------------------------------------------------------------------------------0-
A------------------------------------------------------------------------------------------------------------
E------------------------------------------------------------------------------------------------------------

gtr.1 Riff7

gtr.3 riff8

gtr.2                                                                                        s. F
e-------------------------------------------------------------------------------------------------
B-8h10-/10\-/10\-8-0-9-11-/11\-9-0-8h10-/10\-/10\-8-0-7h9-5h7-3p0-8h10-/10\-/10\-8-0-10-9-8-7\----
G---------------------------------------------------------------------------------------------x-2-
D---------------------------------------------------------------------------------------------x-3-
A---------------------------------------------------------------------------------------------x-3-
E---------------------------------------------------------------------------------------------x-1-
											     all 3 gtrs play the F


gtr.1 Riff9
   Cm          G                         A             Dm          A
e-------3--3-3------3--3-3-------------------------------------------------------
B-------4--4-4------3--3-3-------8--8-8-------5--5-5-------6--6-6-------5-5-5-5--
G--0-0--0--0-0------0--0-0-------7--7-7-------6--6-6--7-7--7--7-7-------6-6-6-6--
D--------------0-0-----0----8-8--8--8-8--7-7--7--7-7--7-7--7--7-7--7----7-7-7-7--
A--3-3---------2-2------------------------------------5-5----------7-7-----------
E---------------------------6-6--6-------5-5-----------------------5-5-----------

  Dm           C?         Bb           F/A           Gm           F
e-------------------------------------------------------------------------------
B------6--6-6-----6-6-6--------6--6---------6-6-6-6---------3----------1-1-1----
G-7-7--7--7-7-----0-0-0--------7--7-7-------5-6-5-5------3--3-3--------2-2-2-0--
D-7-7--7--7-7-------------8-8--8--8-8--7-7--7-7-7-7--5-5-5--5-5---3-3--3-3-3-0--
A-5-5----------7----7-----8-8--8----8----------------5-5-5----5---3-3--3-3-3-0--
E--------------8----------6-6----------5-5-----------3-3----------1-1-----------

 
  E           Esus4  E    A        Asus4  A
e--------------------0-0---------0-0-0----0-0----------------------------------
B------0----0---0-0--0-0----2--2-2-3-3-3--2-2----------------------------------
G---1--1--1-1-2-2-2--1-1--2-2--2-2-2-2-2--2-2----------------------------------
D-2-2--2--2-2-2-2-2--2-2--2-2--2-2-2-2-2--2-2----------------------------------
A-2-2--2--2-2-2-2-2--2-2--0-0-------------0------------------------------------
E-0-0--------------------------------------------------------------------------


gtr.1 Riff9 x4 (up to F on last one then....)

e---------0-0-----------------0-0--------------
B----0--0-0-0-0-0--0--------0--0-0-0-0-0--0----
G----1--1-1-2-2-1--1-1------1--1-1-2-2-1--1-1--
D----2--2-2-2-2-2--2-2------2--2-2-2-2-2--2-2--
A-2--2--2-2-2-2-2--2-2---2--2--2-2-2-2-2--2-2--
E-0----------------------0---------------------


gtr.1 Riff6a   gtr.1 Riff6a
               gtr.3 Riff6b

               gtr.2                                                   s.
             e----------------------------------------------------------------------------------------------
             B------------------------------------------------------------0------------------------x---x----
             G-------------5------------5--7--7-7-7~~~~~~~~~~~~~~-----12\-0---------5------------5-x-7-x----
             D-14\--7--7-7---7-6--6-6-6-----------------------------------0--7--7-7---7-6--6-6-6------------
             A----------------------------------------------------------------------------------------------
             E----------------------------------------------------------------------------------------------
                                   		jonny uses that button thing

gtr.1 Riff 7

gtr.3 Riff 8 (but without the 9\4 slide bits)

gtr.2									.5
e--10--------------------10--------------------10-----------------------10-----------------------------
B--------10----------------------10---------------------10-------------------------13---12---11---9----
G-----8---------10-----------8----------10---------8/\----------10----------8/\----15/--14/--13/--11/--
D------------8-----------------------8---------------------8/\-----------------------------------------
A-------------------8-----------------------8-----------------------8----------------------------------
E------------------------------------------------------------------------------------------------------

gtr.1 Riff 6a                  Riff6a                Riff6a			  Riff6a
gtr.3 Riff 6b					      Riff6b

gtr.2					*						  *
e-------------------------------------------------------------------------------------------------------
B--13---16--15--13----6-----13-----------------------13---16--15--13----4----13--15/-16---18---20--20---
G--15/--18/-17/-15/---8/----15/------15--15---15-\---15/--18/-17/-15/---6/---15/-17/-18/--20/--22/-22/--
D-------------------------------------------------------------------------------------------------------
A-------------------------------------------------------------------------------------------------------
E ------------------------------------------------------------------------------------------------------
                       *(some studio effects are added here)

gtr.1 Riff7
gtr.3 Riff 8 (but without the 9\4 slide bits)

gtr.2       s.                          s.                        s.
e-------------------------------------------10-8-10/\p8---------------------------------------------------|
B-10---8--------10-------------10-8-8--------------------10---8-------10-----------10-8-8-----------------|
G----0------_------0--10/\p8------------_-------------------0-----_------0--10/\p8--------------9-8-7--5--|
D----------8/10------------------------8/10----------------------8/10----------------------10-8-----------|
A---------------------------------------------------------------------------------------------------------|
E---------------------------------------------------------------------------------------------------------|

-Steven McGovern   or 

--------------------------------------------------------------------------------------------------------------------------------------

Ok.....this is one of Radiohead's best songs to date in my
opinion. I decided it was worth sitting down for ages tabbing
it out....so here it is; I have attempted to transcribe this to
play most of the song on one guitar, and if you have some pedals
you should be able to switch between clean and distorted sounds
and achieve a good match to the song. 

Enjoy, and any corrections or anything I've missed out, please
email me at:   swalx@usa.net

TRANSCRIBED BY MENASHE PORATH
------------------------------

This tab transcription was taken from Menashe's Guitar Site, at:

http://www.geocities.com/SunsetStrip/Studio/2723


Ok, just follow the fills and when when a certain part should 
be played again at another point in the song, the fill to play
is shown - just refer back:

  [FILL 1]
e:-------------------------------------------------------------|
B:------8------------8---------8---------8---8-------3---------|
G:--------8------------8---------8-------8---8---------3-------|
D:-------------------------------------------------------------|
A:-------------6-6-6-----6-8-8-----6-0-0---0----------------1-1|
E:--8-8------8---------------------------------6-3-3------3----|

e:-------------------------------------------------------------|
B:---3-----------3-3------3---3---------3------------3---------|
G:-----3---------3-3------3---3-----------3------------3-------|
D:----------2-2------2----2-2-2-2---------------------------2-2|
A:-1------1----------0------0---0--------------1-1-1------1----|
E:----------------------------------3-3------3-----------------|

                                 FILL 2
e:----------------------------------------12----------12-------|
B:-3-3------3---3----[Play---]---------15----15----15----15----|
G:-3-3------3---3----[--3----]------15----------15----------15-|
D:-----2----2-2-2-2--[-times-]---------------------------------|
A:-----0------0---0--------------------------------------------|
E:-------------------------------------------------------------|

                                                 What's that?

e:------12----------12-------------12----------12--------------|
B:---15----15----15----15-------15----15----15----15-------15--|
G:14----------14----------14-13----------13----------13-15-----|
D:-------------------------------------------------------------|
A:-------------------------------------------------------------|
E:-------------------------------------------------------------|

e:12---------12-------------12----------12-------------12------|
B:--15----15----15-------15----15----15----15-------15----15---|
G:-----15----------15-14----------14----------14-13----------13|
D:-------------------------------------------------------------|
A:-------------------------------------------------------------|
E:-------------------------------------------------------------|

                 What's that?

e:----12----------12----------12-----|
B:-15----15----15----15----15----15--|
G:----------13----------13-----------|
D:-----------------------------------|
A:-----------------------------------|
E:-----------------------------------|

[   Play        ]
[               ] 
[   FILL 1      ] 
[               ]
[   again TWICE ]
[		    ]
  when I am king you will be fast against the wall......

[   Play        ]
[               ]
[   FILL 2      ]
[               ]
[   again ONCE  ]
[               ]

 what's that?........etc.

                                   FILL 3
e:-------------------------------------------------------------|
B:-------------------------------------------------------------|
G:-------------------------------------------------------------|
D:-------------------------------------------------------------|
A:------------------------------------------------3-----------3|
E:------------------------------------------5-5-5---5-4-4-4-4--|

e:-------------------------------------------------------------|
B:-------------------------------------------------------------|
G:-------------------------------------------------------------|
D:-------------------------------------------------------------|
A:-5-------3-----5-3-0-5-5-3-0--------3---------3-5-------3----|
E:---5-5-5---5-4----------------5-5-5--5-4-44-4-----5-5-5---5-4|

                  FILL 4
e:-------------------------------------------------------------|
B:---------------------8--8--8--8--8---4-4---6-6---------------|
G:---------------------0--0--0-10--0---0-0---0-0---<--Play--and|
D:---------------------9--9--9--9--9---5-5---7-7-------3-------|
A:-5-3-0-5-5-3-0------10-10-10-10-10---6-6---8-8------times----|
E:-------------------------------------------------------------|

e:-------------------------------------------------------------|
B:--------8--8--8--8----8-6-5-4--------------------------------|
G:-then:--0--0-10--0----0-0-0-0--------------------------------|
D:--------9--9--9--9----9-7-6-5--------------------------------|
A:-------10-10-10-10---10-8-7-6--------------------------------|
E:-------------------------------------------------------------|
                                     Ambition makes you look 

e:-------------------------------------------------------------|
B:-------------------------------------------------------------|
G:-------------------------------------------------------------|
D:-------------------------------------------------------------|
A:----------------3---------3-5--------------------------------|
E:----------5-555---5-4-444------------------------------------|
  pretty ugly                    kicking squeeling gucci little

e:-------------------------------------------------------------|
B:---------------------------[--------------]------------------|
G:---------------------------[--Play-FILL-4-]------------------|
D:---------------------------[------again---]------------------|
A:-------------3---------3-5-[--------------]----13-\----------|
E:-------5-555---5-4-444-----[--------------]----13-\----------|
   piggy                                          slide to nut

         							You remember....
                                        (Trem.
      FILL 5                              vib.)
e:-------------------------------------------------------------|
B:-------------------------------------------------------------|
G:-------------------------------5--7------{7---8-9-10-11-12---|
D:-----7--7-7--10--7--6--6-6-6---5--7--------------------------|
A:-----7--7-7--10--7--6--6-6-6---3--5------{5---6-7--8--9-10---|
E:-----5--5-5---8--5--4--4-4-4---------------------------------|

e:--[---------]------------------------------------------------|
B:--[--Play---]------------------------------------------------|
G:--[---------]-----9--9-9--10\9-------------9--9-9--10\9------|
D:--[--FILL-5-]-----9--9-9--------10--10-10--9--9-9--------10--|
A:--[---------]-----7--7-7--------10--10-10--7--7-7--------10--|
E:--[--again--]--------------------8---8--8-----------------8--|

                                                        Slide f
                                                          nut
e:---------------------------------------------------------/20-|
B:-------------------------------------------------------------|
G:-------9--9-9--10\9-------------9--9-9-10\9------------------|
D:10-10--9--9-9--------10--10-10--9--9-9-------10-9-8-7--------|
A:10-10--7--7-7--------10--10-10--7--7-7-------10-9-8-7--------|
E:-8--8-----------------8---8--8----------------8-7-6-5--------|

  Very fast picking

e:20-20-20-20-20-20-20-20-20-etc.--20b22--20-20-20-20-20-20-20-|
B:-------------------------------------------------------------|
G:-------------------------------------------------------------|
D:-------------------------------------------------------------|
A:-------------------------------------------------------------|
E:-------------------------------------------------------------|

e:etc.--------20-------20--20--------------20-20-------------20|
B:---------------22b24--------------22b24--------22b24---------|
G:------22b24-----------------22b24--------------------22b24---|
D:-------------------------------------------------------------|
A:-------------------------------------------------------------|
E:-------------------------------------------------------------|

e:-------20-------20-----------------H--------------------H----|
B:-22b24----22b24-------------------8-10--10b12-10b12-8--9-11--|
G:-------------------22b24-------------------------------------|
D:-------------------------------------------------------------|
A:-------------------------------------------------------------|
E:--------------------------(/22\)-----------------------------|

e:----------H--------------------H----P----P----P-----H--------|
B:11b13-9--8-10--10b12-10b12-8--8-10-8-6--6-4--4-2---8-10-10b12|
G:-------------------------------------------------------------|
D:-------------------------------------------------------------|
A:-------------------------------------------------------------|
E:-------------------------------------------------------------|

e:------------H--------------H---------------------------------|
B:--10b12-8--9-11--11b13-9--8-10--10b12-10b12--8--10-9-8-7-(6\)|
G:-------------------------------------------------------------|
D:-------------------------------------------------------------|
A:-------------------------------------------------------------|
E:-------------------------------------------------------------|
                   
e:-----------------------|
B:-----------------------|
G:---2-------------------|
D:---3-------------------|
A:---3-------------------|
E:---1-------------------|

Intro to 'Rain down...'

CHORDS:
            EADGBe

Cm   :	X35543      
G/F# :	220003
Bb   :	X13331
A    :	X02220
Dm   :	XX0231
Dm/C :	X30231
Am   :	X02210
Gm   :	355333
F    :	133211
E    :	022100



Cm     G/F#   Bb   A        Dm    A   Dm  Dm/C               

Bb     Am          Gm       F       E      A
 
     Cm      G/F#   Bb     A     A       Dm    A      Dm   Dm/C
.....Rain down   ,  rain down,  come on rain  down on me

Bb      Am           Gm        F     E     A
from a great height,  from a great height, height

REPEAT TWICE, BUT END SLIGHTLY DIFFERENTLY AT THIS POINT:

       E                         E                        A 
.......god loves his children,  god loves his children yeah!


ENDING:
-------

e:-------------------------------------------------------------|
B:-------------------------------------------------------------|
G:-------------------------------------------------------------|
D:--------------------------------------7--7-7--10--7--6--6-6-6|
A:--------------------------------------7--7-7--10--7--6--6-6-6|
E:--------------------------------------5--5-5---8--5--4--4-4-4|

e:-------------------------------------------------------------|
B:-------------------------------------------------------------|
G:---5--7----7-/-9/10/11/14------------------------------------|
D:---5--7---------------------7--7-7--10--7--6--6-6-6--10-12---|
A:---3--5----5-/-7/-8/-9/12---7--7-7--10--7--6--6-6-6--10-12---|
E:----------------------------5--5-5---8--5--4--4-4-4---8-10---|

e:-10----------------10----------------10----------------------|
B:-------10----------------10---------------------10-----------|
G:----7--------10-------7--------10-------8b10r8--------10-----|
D:----------8-----------------8----------------------8---------|
A:----------------8-----------------8----------------------8---|
E:-------------------------------------------------------------|

e:10-----------------------------------------------------------|
B:--------------10-9-8-7--------13------13----16-----15--------|
G:--8b10r8----------------------15b17--(17)---18b20--17b19-----|
D:-------------------------------------------------------------|
A:-------------------------------------------------------------|
E:-------------------------------------------------------------|

e:-------------------------------------------------------------|
B:-----13-----4----13--13-----------------13------13---16------|
G:-----15b17--6b8--15--15b17/////---------15b17--(17)--18b20---|
D:-------------------------------------------------------------|
A:----------------------(pick-slide----------------------------|
E:-----------------------up-fretboard)-------------------------|

e:-------------------------------------------------------------|
B:15-----13-----4----13--13-------------8/10--8-8------10-8----|
G:17b19--15b17--6b8--15--15b17/////-------------------------10-|
D:-----------------------------------------------8/10----------|
A:----------------------(pick-slide)---------------------------|
E:-------------------------------------------------------------|

                                          P
e:--------------------------10-8--10b11r10-8-------------------|
B:------P----8/10--8-8-------------------------8/10--8-8-------|
G:b11r10-8-----------------------------------------------------|
D:---------------------8/10------------------------------8/10--|
A:-------------------------------------------------------------|
E:-------------------------------------------------------------|

e:----------------------------------------|
B:10--8---------P---8/10-8-8------10-9-8-7|
G:------10b11r10-8------------------------|
D:---------------------------8/10---------|
A:----------------------------------------|
E:----------------------------------------|
  development and support by
dmitry ivanov