rock
 
|tablatures   |lyrics   |discussion forums   |more tabs @ XGuitar.com

Radiohead tabs

No Surprises guitar tab

NO SURPRISES

Gtr 1 Capo 15th fet
 Riff 1--------------------------------------]
e-2-----------2-----------2----------------0-----------------------------------
B-------3----------3-----------3---------3-------------------------------------
G----2-----2-----2----2------2---2--0--3-------- Riff 1 x 3--------------------
D------------------------------------------------------------------------------
A------------------------------------------------------------------------------
E------------------------------------------------------------------------------

Gtr 2 Capo 3rd fret
 Rhy 1--------------------------------------]
e--0-----------------------3--3---2---0-0-0------------------------------------
B--3---- Strum ------------3--3---3---3-3-3-----------------------------------
G--2-----------------------0--0---0---0-0-0------ Rhy 1 -----------------------
D--0---------------------------------------------------------------------------
A--------------------------1--1---1---1-1-1------------------------------------
E------------------------------------------------------------------------------

Verse
Gtr 1
Riff 2_______________________________________________________________________________________________________]

e-2--------2--------2--------2--------2--------2--------2--------2--------3----------3------------------------
B-----3--------3--------3--------3--------3-------3--------3--------3-------0--3--0----0-3-0--3-2-------------
G---2---2----2---2----2---2----2---2----0---0---0---0----0---0----0---0---------------------------2-------2--0
D---------------------------------------------------------------------------------------------------2-2h4-----
A-------------------------------------------------------------------------------------------------------------
E-------------------------------------------------------------------------------------------------------------
Gtr2 (Strumming these Chords)
Rhy 2 _______________________________________________________________________________________________________]

e-0--------2---0----2---0----2--0-----2---0----2--0-----2--0-----2--0-----0--------------------0------0-0-----
B-3--------3---3----3---3----3--3-----3---3----3--3-----3--3-----3--3-----0--------------------2------3-2-----
G-2--------2---2----3---2----2--2-----0---0----0--0-----0--0-----0--0-----0--------------------2------2-2-----
D-0--------0---0----0---0----0--0-----------------------------------------2--------------------2------2-2-----
A-------------------------------------2---2----2--2-----2--2-----2--2-----2--------------------0------0-0-----
E-------------------------------------------------------------------------0-----------------------------------

e------------------------------------------------------------------------------
B------------------------------------------------------------------------------
G-- Riff 1 & Rhy 1---- Riff 2 & Rhy 2 x.5--------------------------------------
D------------------------------------------------------------------------------
A------------------------------------------------------------------------------
E------------------------------------------------------------------------------
Chorus
Gtr 1
Riff 3____________________________________________________________________________]
e------------------------------------------------------------------------------------------------------
B---------------------------------------------------------------------------3---2----------------------
G--4--2--2--0--0--2--2--0---------0-2-0-----4--2--2--0--0--2--2--0--------------------- Riff 3 x.5 ----
D-----------------4--4--2---2-2h4-------0------------------4--4--2--2--2--2---2---2--------------------
A------------------------------------------------------------------------------------------------------
E------------------------------------------------------------------------------------------------------
Gtr 2
Rhy 3 ____________________________________________________________________________]
e--0--------------------0---------0-0--------0-------------------0----------0---0----------------------
B--0--------------------2---------3-2--------0-------------------2----------3---2----------------------
G--0--------------------2---------2-2--------0-------------------2----------2---2-------- Rhy 3 x.5 ---
D--2--------------------2---------2-2--------2-------------------2----------2---2----------------------
A--2--------------------0---------0-0--------2-------------------0----------0---0----------------------
E--0-----------------------------------------0---------------------------------------------------------


e------------------------------------------------------------------------------------------------------
B------------------------------------------------------------------------------------------------------
G-Gtr 1 Riff 1 x2---Gtr 1 & Gtr 2 Riff 2 x.5 ----Gtr 1 Riff 3 x1.5 & Gtr 2 Rhy 3 x1.5-- Riff 1 & Rhy 1-
D------------------------------------------------------------------------------------------------------
A------------------------------------------------------------------------------------------------------
E------------------------------------------------------------------------------------------------------

Gtr 1
 Riff 4-------------------------------------------]
e---------------------------------------5--3-----------------------------------
B--2-----2-----3p2-------------------3--------3--------------------------------
G------------------2----2---0--0--3--------------3-------- Riff 4--------------
D-----2-----2--------2---------------------------------------------------------
A------------------------------------------------------------------------------
E------------------------------------------------------------------------------
Gtr 2
Rhy 4----------------------------------------------]
e------------------------------------0--1--0-----------------------------------
B--2------------------------------3-----------3--------------------------------
G--2--2-----------2--2--0------3-----------------3---------Rhy 4---------------
D--2-----2-----2--2--2--0------------------------------------------------------
A--0--------0--0---------------------------------------------------------------
E---------------------------3--------------------------------------------------

e----------------------------------------------0-----------------------------------------------------
B-----------------3--0--------------1-----3-------3--------------------------------------------------
G-----------0-----------0--2--3--------------------------- Riff 2 x.5---- Riff 3 x1.5----------------
D-----2--2-----2-------------------------------------------------------------------------------------
A----------------------------------------------------------------------------------------------------
E----------------------------------------------------------------------------------------------------


e-!-0------------------------------------------------------------------------------------------------
B-!-0-------0--------------------3-----3-----3-----3-------------------------------------------------
G-!-0-------------0-----0--2--3-----2-----0-----3---------- Rhy 2 x.5 ----- Rhy 3 x1.5---------------
D-!-2----------------4-------------------------------------------------------------------------------
A-!-2----------2-------------------------------------------------------------------------------------
E-!-0------------------------------------------------------------------------------------------------
Gtr 1

e--2--------2-------2----------------0--2--------2--------2----------------0--!-2-
B------3--------3-------3---------3---------3--------3--------3----------3----!-3-
G----2---2----2---2---2---2--0--3---------2---2----2---2----2---2--0--3-------!-2-
D-----------------------------------------------------------------------------!-0-
A---------------------------------------------------------------------------------
E---------------------------------------------------------------------------------
Gtr 2

e-----------------------------------------------------------------------------!-2-
B-3--------------------------3----------3-------------------------------------!-3-
G-2--------------------------3----------2-----------------------------0----0--!-2-
D-0--------------------------0----------0---------------------0-2--3-----2----!-0-
A---------------------------------------------------------------------------------
E--------------------------------------------------------------------------------
  development and support by
dmitry ivanov