rock
 
|tablatures   |lyrics   |discussion forums   |more tabs @ XGuitar.com

Radiohead tabs

Nice Dream guitar tab

NICE DREAM

Near the start the 2nd guitar goes something like this...........

A
Low E----------------------------------------------------
----------2----------------2----------1---------------1--
-------------2---------2-------------------2-------2-----     repeat once.
----------------2------------------------------0---------
---------------------------------------------------------
high e---------------------------------------------------


I think the second guitar in the song goes something like this at a
few stages during the song.

           C?
Low E------------------------
----------2-----2------------
-------------0-----------0---         repeat once
----------------------2------
-------------------3---------
high e-----------------------

C?
low E-------------------
--------0---------------
-----------2----------2-      repeat once
--------------1----1----
-----------------3------
high e------------------

A?                        G6.9/A   A?
low E---------------------------------------
--------0-----------------------------------
--------------------------------------------
-----------6------------6--7----7--6--------
---------------5-----5--------5-------5-----
high e------------5----------------------5--

B?                        Emin/B
low E---------------------------------------
--------------------------------------------
--------------------------------------------
-----------8------------8--9----9--8--------
---------------7-----7--------7-------7-----
high e------------7----------------------7--

The above two stages are repeated near the end of the song, it sounds
as if its around the 17-22 frets, and since I've only got an acoustic
with 20 frets
------------------------------------------------------------------------------------------

SOLO:

e|-----------------------------||-----------------------------|
b|-----------------------------||-----------------------------|
g|-----5--7^(full)-------------||-----5--7^(full)-------------|
D|--7--------------------------||--7--------------------8--8--|
A|-----------------------------||-----------------------8--8--|
E|-----------------------------||--------------------------8--|


e|-----------------------------||-------------------15^--14^--|
b|-----------------------------||-------------------18^--17^--|
g|-----5--7^(full)-------------||-------5--7^(full)-----------|
D|--7--------------------------||----7------------------------|
A|-----------------------------||-----------------------------|
E|-----------------------------||-----------------------------|


|--12----------------20^--19^--||--17-----------------15--14--|
|--15----------------23^--22^--||--20-----------------18--17--|
|--------5--7^(full)-----------||--------5--7^(full)----------|
|-----7------------------------||-----7-----------------------|
|------------------------------||-----------------------------|
|------------------------------||-----------------------------|
  development and support by
dmitry ivanov