rock
 
|tablatures   |lyrics   |discussion forums   |more tabs @ XGuitar.com

Radiohead tabs

Nice Dream bass tab

#---------------------------------PLEASE NOTE----------------------------------#
#This file is the author's own work and represents their interpretation of the #
#song. You may only use this file for private study, scholarship, or research. #
#------------------------------------------------------------------------------#
#------------Created with Taborama Tab Creator-----www.taborama.com------------#
#------------------------------------------------------------------------------#

Title: Nice Dream
Artist: Radiohead
Album: The Bends

Instrument: 4 String Bass

Tabbed by: Sonny (stupidsonny@yahoo.com)

Tuning: Standard (E A D G)

I tabbed this off a live version, because the bass was more audible, Alright I updated the bridge, so it sounds a lot better now :-) live version. 6/8.

Intro
|-------------------------------------------------||
|-------------------------------------9-7---------||
|-------------------------------------------------||
|--5--5-5-5--5--5-5-5--5--5-5-5--5-5--------------||

VerseA:
G|-------------------------------------------------------------------||
D|-------------------------------------------------------------------||
A|---------------------------------------7---5--5-5---5--5-5---5--5-5||
E|-5--5-5---5--5-5---5--5-5---5--5-5---5-----------------------------||

VerseB:
G|--------------------------------------------------------------------------||
D|--------------------------------------------------------------------------||
A|5-5-5--5--5-5--5--5-5---5--5-5---5-5-5---7--7-7---7--7-7---7--7-7--7-9-7--||
E|--------------------------------------------------------------------------||

VerseC:
G|--------------------------------------------------------------------------||
D|--------------------------------------------------------------------------||
A|5-5-5--5--5-5--5--5-5---5--5-5---5-5-5---7--7-7---7--7-7---7--9--10--12---||
E|--------------------------------------------------------------------------||


Chorus:
|-------------------------------------------------------------------||
|-------------------------------------------------------------------||
|------------------------------7--7-7--7--7-7--7--7-7--7--7-7-------||
|-7--7-7--7--7-7--7--7-7--7-7---------------------------------------||

ChorusA:
G|-------------------------------------------------------------------||
D|-------------------------------------------------------------------||
A|-0-0-0-12-12-12--0-0-0-12-12-12--0-0-0-12-12-12--0-0-0-10h12-12-12-||
E|-------------------------------------------------------------------||

ChorusB:
|-------------------------------------------------------------------||
|-------------------------------------------------------------------||
|----------------------------9--9-9--9--9-9--9--9-9--9-9------------||
|-5---5-5--5--5-5--5--5-5------------------------------------------||

ChorusC:
|------------------------------------------------------||
|------------------------------------------------7-s9-9||
|------------------------------------------------------||
|-7--7-7--7--7-7--7--7-7--7--7-7--7--7-7--7--7-7-------||

Bridge:
|------------------------------------------------||
|------------------------------------------------||
|-0-0-0-0-0-0-2-2-2-2-2-2-3-3-3-3-3-3-5-5-5-5-5-5||
|------------------------------------------------||

BridgeA:
|------------------------------------------------||
|-------------------------------------------3-5-3||
|-0-0-0-0-0-0-2-2-2-2-2-2-3-3-3-3-3-3-3-5-6------||
|------------------------------------------------||
Order:
Intro
VerseA
VerseB
VerseA
VerseC
Chorus
ChorusA
VerseA
VerseB
VerseA
VerseC
Chorus
ChorusB
Chorus
ChorusB
ChorusC
Bridge:?X
BridgeA
Bridge:?X
BridgeA
Outro:No Bass.
  development and support by
dmitry ivanov